Oops, an error
Loading. Please wait.

Crash Tab

version 1
version 1

Intro

Whole song

Interactive

2,785 views 1 this week
2 commentsread comments
1 2 3 4 5
x 3
add to favorites
launch autoscroll
font size
0
reset
how to read this tab
guitar tuner
×
Best way to learn
"Crash"
Autoscroll
slow
fast
+/-
esc
set tempo
stop
standard tuning this is 100% right except you need to make it sound like the song with a footswitch.

e-----------------------------------------------------------------|
b-----------------------------------------------------------------|
g-5-----5-----5----8------8-----8---7-----7-----7----3---2---2----|
d---0-0---0-0---0----0-0----0-0---0---0-0---0-0---0----3---3----3-|  x2 intro
a-----------------------------------------------------------------|
e-----------------------------------------------------------------|


this tab goes through the intro, and verses NOT the chorus
Suggest correction
Give kudos to tab author, rate the tab!
1 2 3 4 5
comments
print report bad tab
2 comments total.
0 reply
ajc 255 May 29, 2004 08:00 PM

The whole song is in drop C. You might aswell play the intro in the same tuning :)

0 reply
Guitar_picker_1 20 Nov 19, 2005 05:13 PM

Pretty decent tab, though it is a tad incorrect. Normally it would be played in Drop C (CGCFAd)..

This is the way you posted it..which is incorrect because the D string should actually be C

e-----------------------------------------------------------------|
b-----------------------------------------------------------------|
g-5-----5-----5----8------8-----8---7-----7-----7----3---2---2----|
d---0-0---0-0---0----0-0----0-0---0---0-0---0-0---0----3---3----3-|
a-----------------------------------------------------------------|
e-----------------------------------------------------------------|

But if you dont want to go about tunning your guitar and just playing the intro, this would be the way to do it:


e-----------------------------------------------------------------|
B-----------------------------------------------------------------|
G-5-----5-----5----8------8-----8---7-----7-----7----3---2---2----|
D-----------------------------------------------------------------|
A---3-3---3-3----3---3-3----3-3---3---3-3---3-3---3----6---6----6-|
E-----------------------------------------------------------------|

But maybe its jsut me, I'd rather just tune it into Drop C and do it like this!


d------------------------------------------------------------------|
A------------------------------------------------------------------|
F-7-----7-----7---10-----10-----10---9-----9-----9----5-------4--4-|
C---0-0---0-0---0----0-0----0-0---0---0-0---0-0----0----3---3---3--|
D------------------------------------------------------------------|
C------------------------------------------------------------------|


K, keep those Tabs acommin' ;P

guest
You may want to rate the tab now too:
select rating
Wanna post a correction for this tab? Suggest correction