Oops, an error
Loading. Please wait.

Far Away Tab

version 1
version 1

Whole song

Interactive

8,318 views 3 this week
3 commentsread comments
1 2 3 4 5
please rate
add to favorites
launch autoscroll
font size
0
reset
how to read this tab
guitar tuner
Autoscroll
slow
fast
+/-
esc
set tempo
stop
Help us to improve Ultimate-Guitar.com Take our survey!
×
12 Stones - Potter's Field
"Far Away" (their newest single)
Kyotaro8oenagi
tuning: CGCgbe

intro/chorus
e--------------------------------------|
b--------------------------------------|
g--------------------------------------|
C-999-7-9-7-555-777-999-7-9-7-555-7-00-|
G-999-7-9-7-555-777-999-7-9-7-555-7-00-|
C-999-7-9-7-555-777-999-7-9-7-555-7-00-|

verse 1
-----
-----
-----
-99--
-99--
-99--

pre chorus
------------------|
------------------|
------------------|
-9999-000-555-777-|
-9999-000-555-777-|
-9999-000-555-777-|

verse 2
-------------------------------------------|
-------------------------------------------|
-------------------------------------------|
-99999999999999999999999999999999999999-7--|
-99999999999999999999999999999999999999-7--|
-99999999999999999999999999999999999999-7--|

bridge
-7-9-10-12----------------------|
--------------------------------|
--------------------------------|
--------------------------------|
-----------77777-000-555-000000-|
-----------77777-000-555-000000-|
-----------77777-000-555-000000-|
wah.......dist..................

outro (whisper:now im feeling) (then scream:so far away!) same as intro

Far Away - 12 Stones

(verse 1)
something keeps on pulling me down
and i feel like i'm losing ground
trying just to find my reasons
and losing sense of what is real
willing to believe in something
forgetting to believe in me
will i find my place in your mind
or will i fall away in time

(chorus)
now i'm feeling so far away
and now i'm hating you everyday

(verse 2)
waiting just to see the image you follow
down that road agian
trying just to find your purpose
your fading faster everyday
willing to believe in something
forgetting to believe in me
will i find my place in your mind
or will i fall away in time

(chorus)

(bridge/break)
now i feel i'm losing time
and yesterday slipped away
but you didn't know
time and time again you wanted
more than i had to give
to leave me with nothin
im waiting and dreaming
yesterday slipped away
but you didn't know
and no more waiting let me BACK

(chorus)2x

now im feeling so far away

ThIs iS mY ver fIrSt tAb...I lIstEned tO thEir new AlbUm "Potter's Field" ThIs Is
a VeRy AWESOME..tHis Only i ThInk 95%, please e-MaiL davidheat200@hotmail.com Feel
FrEe 2 CorRect Me...PeAcE!!! GOd BlEsS...
Thanks 4 KyLe,MadEl,SaeeD 4 a gOoD band i'll see Ya Del.....in Phil. Rock in
Suggest correction
What's this?
You can suggest a correction to this tab. Community and Mods will review your correction and vote to approve or reject it.
comments
We did not receive enough feedback on this tab! Please rate:
print report bad tab
1 2 3 4 5
3 comments total.
0 reply
FerriuS 185 wrote on August 25 2004, 12:00 am

Hi! Thanx for tab! New album - new tabs :) I'll post my tabs for new album later, and here are my corrections:
Intro is:
D|-----------------------------------------------------------------|
A|-----------------------------------------------------------------|
F|-----------------------------------------------------------------|
C|-7-9-9-9--7-9-7--5-5-5-5-5--2-2---7-9-9-9--7-9-7--5-5-5-5-5--7-7-|
G|-7-9-9-9--7-9-7--5-5-5-5-5--2-2---7-9-9-9--7-9-7--5-5-5-5-5--7-7-|
C|-7-9-9-9--7-9-7--5-5-5-5-5--2-2---7-9-9-9--7-9-7--5-5-5-5-5--7-7-|

Verse 1 is right, except that there is background riff playing. And i don't know about pre-chorus - i'll figure it later...

0 reply
FerriuS 185 wrote on August 25 2004, 12:00 am

My god, i missed the second part of intro, here it is:
D|-----------------------------------------------------------------|
A|-----------------------------------------------------------------|
F|-----------------------------------------------------------------|
C|-7-9-9-9--7-9-7--2-2-2-2-2--5-5---7-9-9-9--7-9-7--5-5-5-5-5--4-4-|
G|-7-9-9-9--7-9-7--2-2-2-2-2--5-5---7-9-9-9--7-9-7--5-5-5-5-5--4-4-|
C|-7-9-9-9--7-9-7--2-2-2-2-2--5-5---7-9-9-9--7-9-7--5-5-5-5-5--4-4-|

0 reply
FerriuS 185 wrote on August 25 2004, 12:00 am

And what a weird tuning ebdCGC? I don't know it exactly for now, but i think that this song can be played eBGDAD (Drop D)!

guest
You may want to rate the tab now too:
select rating
Please do not post tabs as comments. Select "correction" instead!