Oops, an error
Loading. Please wait.

Sculptor Of Flesh Tab

version 1
version 1

Whole song

Interactive

by 1349
5,859 views 6 this week
2 commentsread comments
1 2 3 4 5
x 4
add to favorites
launch autoscroll
font size
0
reset
how to read this tab
guitar tuner
Autoscroll
slow
fast
+/-
esc
set tempo
stop
Author
Difficulty
Tuning
Tabbers playing skills
intermediate
E A D G B E
intermediate ++
Tuning: E A D G B e

e|------------------------------------------------------------|
B|------------------------------------------------------------|
G|------------------------------------------------------------|
D|------------------------------------------------------------|
A|-------<7-8>----------<10-11>---------<7-8>---7--10--8--11--|(x9)
E|-0000-----------0000------------0000----------0-------------|
                                                "  "   "   "
e|-----------------------------------------|
B|-----------------------------------------|
G|-----------------------------------------|
D|---------3-----------3-------9/-10/9--9--|
A|-2----2--1---2----2--5--2----7/-8-/7--7--|(x2)
E|-0----0------0----0-----0----------------|
   "    .      "    .     "

[Verse]
e|-----------------------------------------------------------------------------|
B|-----------------------------------------------------------------------------|
G|-------------8---------------------------------------------------------------|
D|-2-----2-----8--2----2----2----2----2----2----2-10------9--2-----------------|
A|-0--0000--0006--0-0000-0000-0000-0000-0000-0000-8---8---7--0-000-0--2--3-----|(x4)
E|----------------------------------------------------6------------------------|
   .  ....  ...   . .... .... .... .... .... .... "   "   "  . ... "  "  "

e|---------------------------------------------------------------------------|
B|---------------------------------------------------------------------------|
G|---------------------------------------------------------------------------|
D|-------------8----------------------------------5-------4------------------|
A|-2-----2-----8--2----2----2----2----2----2----2-3---3---2--2-----7--9--10--|(x4)
E|-0--0000--0006--0-0000-0000-0000-0000-0000-0000-----1------0-000-0--2--3---|
   .  ....  ...   . .... .... .... .... .... .... "   "   "  . ... "  "  "

e|-----------------------------------------------------------------------------|
B|-----------------------------------------------------------------------------|
G|-------------8---------------------------------------------------------------|
D|-2-----2-----8--2----2----2----2----2----2----2-10------9--2-----------------|
A|-0--0000--0006--0-0000-0000-0000-0000-0000-0000-8---8---7--0-000-0--2--3-----|(x4)
E|----------------------------------------------------6------------------------|
   .  ....  ...   . .... .... .... .... .... .... "   "   "  . ... "  "  "

e|--------------------------------------------|
B|--------------------------------------------|
G|--------------------------------------------|
D|-----------3------------3-------9/-10/9--9--|
A|-2--2-2--2-1--2--2-2--2-5--2----7/-8-/7--7--|(x4)
E|-0--0-0--0----0--0-0--0----0--0-------------|

e|-----------------------------------------|
B|-----------------------------------------|
G|-----------------------------------------|
D|---------3-----------3-------9/-10/9--9--|
A|-2----2--1---2----2--5--2----7/-8-/7--7--|(x8)
E|-00000000----00000000---00000------------|
   ........    ........   .....

 "Sculptor of flesh..."
e|-------------------------------------------------------------------|
B|-------------------------------------------------------------------|
G|-------------------------------------------------------------------|
D|-------------------------------------------4-----------------------|
A|-2h3h2-2-2-2-2-2-2-2-2-2-2-2-2-2-2-2h3h2---2-2-2-2-2-2-2-2-2-2-2-2-|
E|-------0-0-0-0-0-0-0-0-0-0-0-0-0-0-------0---0-0-0-0-0-0-0-0-0-0-0-|
         . . . . . . . . . . . . . .       .   . . . . . . . . .

e|-----------------------------------------------------------------|
B|-----------------------------------------------------------------|
G|-----------------------------------------------------------------|
D|-3-----4---------------------------------4-5---------------------|
A|-1-----2-2-2-2-2-2-2-2-2-2-2-2-2-2h3h2---3-2-2-2-2-2-2-2-2-2-2-2-|
E|---0-0---0-0-0-0-0-0-0-0-0-0-0-0-------0-----0-0-0-0-0-0-0-0-0-0-|
     . .   . . . . . . . . . . . .       .     . . . . . . . . . .

e|-----------------------------------------------------------|
B|-----------------------------------------------------------|
G|-----------------------------------------------------------|
D|-3-4---------------------------------4---------------------|
A|-1-2-2-2-2-2-2-2-2-2-2-2-2-2-2h3h2---2-2-2-2-2-2-2-2-2-2-2-|
E|-----0-0-0-0-0-0-0-0-0-0-0-0-------0---0-0-0-0-0-0-0-0-0-0-|
       . . . . . . . . . . . .       .   . . . . . . . . . .

e|-----------------------------------------------------------------|
B|-----------------------------------------------------------------|
G|-----------------------------------------------------------------|
D|-3-----4---------------------------------4-5---------------------|
A|-1-----2-2-2-2-2-2-2-2-2-2-2-2-2-2h3h2---3-2-2-2-2-2-2-2-2-2-2-2-|
E|---0-0---0-0-0-0-0-0-0-0-0-0-0-0-------0-----0-0-0-0-0-0-0-0-0-0-|
     . .   . . . . . . . . . . . .       .     . . . . . . . . . .

e|--------------------------------------------|
B|--------------------------------------------|
G|--------------------------------------------|
D|-----------3------------3-------9/-10/9--9--|
A|-2--2-2--2-1--2--2-2--2-5--2----7/-8-/7--7--|(x4)
E|-0--0-0--0----0--0-0--0----0--0-------------|

e|-------------------------------------------------------------------|
B|-------------------------------------------------------------------|
G|-------------------------------------------------------------------|
D|-------------------------------------------4-----------------------|
A|-2h3h2-2-2-2-2-2-2-2-2-2-2-2-2-2-2-2h3h2---2-2-2-2-2-2-2-2-2-2-2-2-|
E|-------0-0-0-0-0-0-0-0-0-0-0-0-0-0-------0---0-0-0-0-0-0-0-0-0-0-0-|
         . . . . . . . . . . . . . .       .   . . . . . . . . .

e|-----------------------------------------------------------------|
B|-----------------------------------------------------------------|
G|-----------------------------------------------------------------|
D|-3-----4---------------------------------4-5---------------------|
A|-1-----2-2-2-2-2-2-2-2-2-2-2-2-2-2h3h2---3-2-2-2-2-2-2-2-2-2-2-2-|
E|---0-0---0-0-0-0-0-0-0-0-0-0-0-0-------0-----0-0-0-0-0-0-0-0-0-0-|
     . .   . . . . . . . . . . . .       .     . . . . . . . . . .

e|-----------------------------------------------------------|
B|-----------------------------------------------------------|
G|-----------------------------------------------------------|
D|-3-4---------------------------------4---------------------|
A|-1-2-2-2-2-2-2-2-2-2-2-2-2-2-2h3h2---2-2-2-2-2-2-2-2-2-2-2-|
E|-----0-0-0-0-0-0-0-0-0-0-0-0-------0---0-0-0-0-0-0-0-0-0-0-|
       . . . . . . . . . . . .       .   . . . . . . . . . .

e|-----------------------------------------------------------------|
B|-----------------------------------------------------------------|
G|-----------------------------------------------------------------|
D|-3-----4---------------------------------4-5---------------------|
A|-1-----2-2-2-2-2-2-2-2-2-2-2-2-2-2h3h2---3-2-2-2-2-2-2-2-2-2-2-2-|
E|---0-0---0-0-0-0-0-0-0-0-0-0-0-0-------0-----0-0-0-0-0-0-0-0-0-0-|
     . .   . . . . . . . . . . . .       .     . . . . . . . . . .

e|-------------------------------------------------------------------|
B|-------------------------------------------------------------------|
G|-------------------------------------------------------------------|
D|-------------------------------------------------------------------|
A|-------------------------------------------------------------2-----|
E|-4p2p1--4p2p1--4p2p1-4p2p1--4p2p1--4p2p1-4p2p1--4p2p1--4p2p1-0-----|


************************************

| /  Slide up
| .  Staccato
| h  Hammer-on
| p  Pull-off

************************************
Suggest correction
comments
print report bad tab
2 comments total.
0 reply
Sobek-Ra 51 Jan 01, 2009 06:00 AM

Great tab.

0 reply
fernandogmore 10 Oct 12, 2016 09:25 PM

Sounds perfect!

guest
You may want to rate the tab now too:
select rating
Wanna post a correction for this tab? Suggest correction