Oops, an error
Loading. Please wait.

Serpentine Sibilance Tab

version 1
version 1

Whole song

by 1349
470 views 1 this week
no commentswrite comment
1 2 3 4 5
3 more votes to show rating
add to favorites
launch autoscroll
font size
0
reset
how to read this tab
guitar tuner
Autoscroll
slow
fast
+/-
esc
set tempo
stop
Help us to improve Ultimate-Guitar.com Take our survey!
×
I posted just the first 3 riffs before...now the rest.  At least as I hear it...

                            trem picking these chords
------------------------------------------------------------------|
------------------------------------------------------------------|
------------------------------------------------------------------|
-2-----3---6--5--2--3--6-----8--10--10-12--13---------------------|
-2-----3---6--5--2--3--6-----6--8---8--10--11---------------------|repeat a lot
-0-----1---4--3--0--1--4---0---0----------------------------------|


-------------------------------------|
-------------------------------------|
-------------------------------------|
----3--4--5--4----2------------------|
----1--2--3--2----2------------------|
------------------0------------------|


                   let the D# ring a little
-------0---------------------------------------------------------------|
-------0---------------------------------------------------------------|
-------4-------3-3-3---3---4---4-3-3---------3-3-3---4-4---4-3h4p3-----|
-------5-------------1-------1-------1-------------1-----1-------------|
-------3---------------------------------------------------------------|
-0-0-0-----------------------------------------------------------------|


still not perfect on this but you can figure it out
-------------------------------------------8"-------------------------|
----------------------------------------10"--10"----------------------|
--------------------------------------8"--------9"--------------------|
--0"-2"-5"---3"-7"-5"-8"-5"-9"-----10"------------10"-----------------|
-----------------------------------------------------12"--------------|
----------------------------------------------------------------------|


---------------------------|
---------------------------|repeat a lot
----9---8---9-9-9-9--------|
----10--9---9-9-9-9--------|
------------7-7-7-7--------|
------------0-0-0-0--------|


Stupifiedsnake (on last.fm if you need me)
Suggest correction
Give kudos to tab author, rate the tab!
1 2 3 4 5
comments
print report bad tab
guest
You may want to rate the tab now too:
select rating
Wanna post a correction for this tab? Suggest correction