Oops, an error
Loading. Please wait.

Sa Isang Sulyap Mo Tab

version 2
version 2

Whole song

by 143
22,585 views 42 this week
1 commentread comment
1 2 3 4 5
excellent!
x 3
add to favorites
launch autoscroll
font size
0
reset
how to read this tab
guitar tuner
Autoscroll
slow
fast
+/-
esc
set tempo
stop
Help us to improve Ultimate-Guitar.com Take our survey!
×
Author
Difficulty
novice
Sa Isang Sulyap mo - 143
Arranged by Rommel R. Rañoa

       its up to you if you want to add notes ..


Intro:

C Am F G
E|----0------0--3---------------------------------------------------------|
b|--------3-------1------0--1--3------------------------------------------|
g|-0------------------------------2--2--0--0------------------------------|
d|--------------------------------3---------------------------------------|
a|----3---------------0--------------------3------------------------------|
e|------------------------------------------------------------------------|

C Am F G 
E|----0------0--3---------------------------------------------------------|
b|--------3-------1------0--1--3------------------------------------------|
g|-0------------------------------2--2--0--0------------------------------|
d|--------------------------------3---------------------------------------|
a|----3---------------0--------------------3------------------------------|
e|------------------------------------------------------------------------|

Verse I:

C Am F G 
E|----------0--0--------3-------------------------------------------------|
b|----------------3--3------1---------------------------------------------|
g|-0--0--0---------------------0--2--0--2--2--2--0--0---------------------|
d|--------------------------------------3---------------------------------|
a|----------3---------------0-----------------------3---------------------|
e|------------------------------------------------------------------------|

C Am F G 
E|----------0--0--------3-------------------------------------------------|
b|----------------3--3------1---------------------------------------------|
g|-0--0--0---------------------0--2--0--2--2--2--0--0---------------------|
d|--------------------------------------3---------------------------------|
a|----------3---------------0-----------------------3---------------------|
e|------------------------------------------------------------------------|

Refrain:

F G Em Am
E|-----------1--1--1------------------0--0--0--1--0----------0------------|
b|------------------------0---------------------------1------1------------|
g|--0--0--0-----------2------2--2--0---------------------2---2------------|
d|----------3------------------------------------------------2------------|
a|------------------------------------2---------------0-------------------|
e|------------------------3-----------------------------------------------|

F G Em Am
E|------1--1--1--------------------0--0--1--0-----------------------------|
b|--------------------0--0--0---0--------------1--------------------------|
g|--2-------------2-------------------------------------------------------|
d|------3-----------------------------------------------------------------|
a|--------------------3------------2-----------0--------------------------|
e|------------------------------------------------------------------------|


Verse II: repeat verse I and refrain

Chorus:

C G Am Em
E|-----0--0--0--0-------3---3-3-3-3-0-3---8-8-8-7-5-3----------------------|
b|----------------3--1-----------------------------------------------------|
g|-0-----------------------------------------------------------------------|
d|-------------------------------------------------------------------------|
a|-----3----------------------------------0---------2----------------------|
e|------------------------3------------------------------------------------|

F C F G
E|-----------3-5---------5--3------------0--1-1-1-1-3-1-0-----------------|
b|--1-1-1-3---------------------------3--------------------3--------------|
g|----------------5-5-5--------5-5-5--------------------------------------|
d|-------------3----------------------------3-------3---------------------|
a|--------------------------3---------------------------------------------|
e|---------------------------------------------------------3--------------|

C G Am Em
E|------------0--0--0--0-------3---3-3-3-3-0-3---8-8-8-7-5-3---------------|
b|-3-3-3-1-3-----------3--1------------------------------------------------|
g|-------------------------------------------------------------------------|
d|-------------------------------------------------------------------------|
a|------------3----------------------------------0---------2---------------|
e|----------------------------3--------------------------------------------|

F C Dm G
E|-----------3-5---------5--3------------0--1-1-1-1-3-1-0-----------------|
b|--1-1-1-3---------------------------3--------------------3--------------|
g|----------------5-5-5--------5-5-5--------------------------------------|
d|-------------3----------------------------3-------3---------------------|
a|--------------------------3---------------------------------------------|
e|---------------------------------------------------------3--------------|

repeat intro 1x
Verse III: repeat verse I

Refrain:

F G Em Am
E|----------1--1--1-------------------0--0--0--1--0----------0------------|
b|------------------------0---------------------------1------1------------|
g|--0--0--0-----------2------2--2--0---------------------2---2------------|
d|----------3------------------------------------------------2------------|
a|------------------------------------2---------------0-------------------|
e|------------------------3-----------------------------------------------|

F G Em Am
E|------1--1--1--------------------3--3--1--------------------------------|
b|--------------------0--0--0---0-------------1---------------------------|
g|--2-------------2-------------------------------------------------------|
d|------3-----------------------------------------------------------------|
a|--------------------3------------2----------0---------------------------|
e|------------------------------------------------------------------------|

Chorus :Repeat chorus

ADLIBS :


F G Em Am
E|-------1--1--1-------------------0--0--0--1--0----------0---------------|
b|------------------------0------------------------1------1---------------|
g|-----------------2------2--2--0---------------------2---2---------------|
d|-------3------------------------------------------------2---------------|
a|---------------------------------2---------------0----------------------|
e|------------------------3-----------------------------------------------|

F G Em Am
E|------1--1--1--------------------3--3--1----0---------------------------|
b|--------------------0--0--0---0-----------------------------------------|
g|--2-------------2-------------------------------------------------------|
d|------3-----------------------------------------------------------------|
a|--------------------3------------2----------0---------------------------|
e|------------------------------------------------------------------------|

Repeat Chorus:

outro:

F C Dm G
E|-----5---------5--3------------0--1-1-1-1-3-1-0-------------------------|
b|----------------------------3--------------------3----------------------|
g|--------5-5-5--------5-5-5----------------------------------------------|
d|-----3----------------------------3-------3-----------------------------|
a|------------------3-----------------------------------------------------|
e|----------------------------------------------------3-------------------|



please rate.. :)
Suggest correction
Give kudos to tab author, rate the tab!
1 2 3 4 5
comments
print report bad tab
1 comment total.
0 reply
diegomatela00 10 wrote on May 25 2014, 05:03 am, edited at 07:37 am

GREAT

guest
You may want to rate the tab now too:
select rating
Wanna post a correction for this tab? Suggest correction