Oops, an error
Loading. Please wait.

American Wheeze Bass Tab

1,580 views 1 this week
2 commentsread comments
1 2 3 4 5
please rate
add to favorites
launch autoscroll
font size
0
reset
guitar tuner
Autoscroll
slow
fast
+/-
esc
set tempo
stop
Help us to improve Ultimate-Guitar.com Take our survey!
×
Author
Difficulty
Tuning
novice
D A D G B E
-------------------------------------------------------------------------
		   American Wheeze - 16 Horsepower
-------------------------------------------------------------------------
Tabbed by: deHufter
Email: kurtkill@hotmail.com

Tuning: dropped D

This bassline is transcribed from the Live perfomance at pinkpop The Netherlands in 2000. 
This line covers the whole song, listen for the timing.

e|---------------------------------------|
B|---------------------------------------|
G|---------------------------------------|
D|---------------------------------------|
A|------5~---------3--5~------5~--1------|
D|--0~------0~--/3--------0~---------3---|

Link: http://www.youtube.com/watch?v=THlgU-8dMYg&p=59AC0A7A73235B45&playnext=1&index=2
Suggest correction
Give kudos to tab author, rate the tab!
1 2 3 4 5
comments
print report bad tab
2 comments total.
0 reply
leograssi90 441 wrote on February 23 2015, 06:52 am

The bass line is ok, but there are also those parts between the verses. I play them like this:

G|--------------------------------|
D|--------------------------3--3--|
A|-----5-5-----5-5-----5-5--------|
E|-0-0-----0-0-----0-0-----3--3---|

0 reply
leograssi90 441 wrote on February 23 2015, 06:53 am

Of course that 'E' in my correction is a 'D'...

guest
You may want to rate the tab now too:
select rating
Wanna post a correction for this tab? Suggest correction