Oops, an error
Loading. Please wait.

Black Soul Choir tab

565 views 24 this week
no commentswrite comment
1 2 3 4 5
3 more votes to show rating
add to favorites
×
Save as Personal and add changes to this tab that will be seen only by you. Learn more ›
×
You can save this tab as Personal to edit and correct it or add notes. All changes will be seen only by you. Learn more »
launch autoscroll
font size
0
reset
how to read this tab
guitar tuner
edit
Autoscroll
slow
fast
+/-
esc
set tempo
stop
Author
Difficulty
About this tab version
This is an attempt to mix up the banjo and bass into a workable solo guitar piece. Was this info helpful? Yes No
[Intro]
E|----0---0---0---0-|      |---0---0---0---0-|
B|----3---3---3---3-|      |---3---3---3---3-|
G|---2---2---0---0--| x3   |---2---2---0---0-|
D|-0----------------|      |-0---------------|
A|------0---3-------|      |-----0-----------|
E|--------------3---|      |---------3---1---|

[Verse 1]
E|----0---0---0---0-|----0---0---0---0-|----0---0---0---0-|---0---0---0---0-| 
B|----3---3---3---3-|----3---3---3---3-|----3---3---3---3-|---3---3---3---3-| 
G|---2---2---0---0--|---2---2---0---0--|---2---2---0---0--|---2---2---0---0-| x2
D|-0----------------|-0----------------|-0----------------|-0---------------| 
A|------0---3-------|------0---3-------|------0---3-------|-----0-----------| 
E|--------------3---|--------------3---|--------------3---|---------3---1---| 
  
No man ever seen the face of his foe no  He ain't made of flesh and bone

He's the one who sits up close beside     When he's there you are alone
you girl an

[Chorus]
E|---0-0-0-0---0-0-0-0---0-0-0-0---0-0-0-0-|---0-0-0-0---0-0-0-0---0-0-0-0---0-0-0-0-|
B|---3-3-3-3---3-3-3-3---3-3-3-3---3-3-3-3-|---3-3-3-3---3-3-3-3---3-3-3-3---3-3-3-3-|
G|---2-2-2-2---2-2-2-2---0-0-0-0---2-2-2-2-|---2-2-2-2---2-2-2-2---0-0-0-0---2-2-2-2-| x2
D|-----------------------------------------|-----------------------------------------|
A|-0---------1-------------------0---------|-0---------1---------3---------0---------|
E|---------------------3-------------------|-----------------------------------------|

Every man is evil yes every man’s a liar     Unashamed with the wicked tongue singin’
                                             In the black soul choir 
                                         
[Post-Chorus]
E|---0-----0---0---0-----0-----0---0---0-|---0-0-0--0—0-----0-0-0--0—0-----0-0-0--0—0-----0-0-0--0—0-|
B|---1-----1---1---1-----1-----1---1---1-|---3-3-3--3—3-----3-3-3--3—3-----3-3-3--3—3-----3-3-3--3—3-|
G|---0-----0-0-----0-----0-----0-0-----0-|---2-2-2--0—0-----2-2-2--0—0-----2-2-2--0—0-----2-2-2--0—0-|  x2
D|-----0h2-------2---------0h2-------2---|-0--------3—3---0--------3—3---0--------3—3---0--------3—3-|
A|-3-------------------3-----------------|-----------------------------------------------------------|
E|---------------------------------------|-----------------------------------------------------------|

Oh, oh, oh,                he rises in my way  

[Instrumental]
E|----0---0---0---0-|      |---0---0---0---0-|
B|----3---3---3---3-|      |---3---3---3---3-|
G|---2---2---0---0--| x3   |---2---2---0---0-|
D|-0----------------|      |-0---------------|
A|------0---3-------|      |-----0-----------|
E|--------------3---|      |---------3---1---|
                           

[Verse 2]
E|----0---0---0---0-|----0---0---0---0-|----0---0---0---0-|---0---0---0---0-| 
B|----3---3---3---3-|----3---3---3---3-|----3---3---3---3-|---3---3---3---3-| 
G|---2---2---0---0--|---2---2---0---0--|---2---2---0---0--|---2---2---0---0-| x2
D|-0----------------|-0----------------|-0----------------|-0---------------| 
A|------0---3-------|------0---3-------|------0---3-------|-----0-----------| 
E|--------------3---|--------------3---|--------------3---|---------3---1---| 

No man ever seen the face of my lord no   Not since he left his skin

He's the one you keep cold on the         At your door let him in
outside girl he’s

[Chorus]
E|---0-0-0-0---0-0-0-0---0-0-0-0---0-0-0-0-|---0-0-0-0---0-0-0-0---0-0-0-0---0-0-0-0-|
B|---3-3-3-3---3-3-3-3---3-3-3-3---3-3-3-3-|---3-3-3-3---3-3-3-3---3-3-3-3---3-3-3-3-|
G|---2-2-2-2---2-2-2-2---0-0-0-0---2-2-2-2-|---2-2-2-2---2-2-2-2---0-0-0-0---2-2-2-2-| x2
D|-----------------------------------------|-----------------------------------------|
A|-0---------1-------------------0---------|-0---------1---------3---------0---------|
E|---------------------3-------------------|-----------------------------------------|

Every man is evil yes every man’s a liar     Unashamed with the wicked tongue singin’
                                             In the black soul choir 
                                 
[Post-Chorus]
E|---0-----0---0---0-----0-----0---0---0-|---0-0-0--0—0-----0-0-0--0—0-----0-0-0--0—0-----0-0-0--0—0-|
B|---1-----1---1---1-----1-----1---1---1-|---3-3-3--3—3-----3-3-3--3—3-----3-3-3--3—3-----3-3-3--3—3-|
G|---0-----0-0-----0-----0-----0-0-----0-|---2-2-2--0—0-----2-2-2--0—0-----2-2-2--0—0-----2-2-2--0—0-|  x2
D|-----0h2-------2---------0h2-------2---|-0--------3—3---0--------3—3---0--------3—3---0--------3—3-|
A|-3-------------------3-----------------|-----------------------------------------------------------|
E|---------------------------------------|-----------------------------------------------------------|

Oh, oh, oh,                he rises in my way                                                        
     
[Instrumental]
E|----0---0---0---0-|      |---0---0---0---0-|
B|----3---3---3---3-|      |---3---3---3---3-|
G|---2---2---0---0--| x3   |---2---2---0---0-|
D|-0----------------|      |-0---------------|
A|------0---3-------|      |-----0-----------|
E|--------------3---|      |---------3---1---|

[Verse 3]
E|----0---0---0---0-|----0---0---0---0-|----0---0---0---0-|---0---0---0---0-| 
B|----3---3---3---3-|----3---3---3---3-|----3---3---3---3-|---3---3---3---3-| 
G|---2---2---0---0--|---2---2---0---0--|---2---2---0---0--|---2---2---0---0-| x2
D|-0----------------|-0----------------|-0----------------|-0---------------| 
A|------0---3-------|------0---3-------|------0---3-------|-----0-----------| 
E|--------------3---|--------------3---|--------------3---|---------3---1---| 

I will forgive your wrongs, I am able    An for my own I feel great shame

I would offer up a brick to the back of  If I was cain
your head boy

[Chorus]
E|---0-0-0-0---0-0-0-0---0-0-0-0---0-0-0-0-|---0-0-0-0---0-0-0-0---0-0-0-0---0-0-0-0-|
B|---3-3-3-3---3-3-3-3---3-3-3-3---3-3-3-3-|---3-3-3-3---3-3-3-3---3-3-3-3---3-3-3-3-|
G|---2-2-2-2---2-2-2-2---0-0-0-0---2-2-2-2-|---2-2-2-2---2-2-2-2---0-0-0-0---2-2-2-2-| x2
D|-----------------------------------------|-----------------------------------------|
A|-0---------1-------------------0---------|-0---------1---------3---------0---------|
E|---------------------3-------------------|-----------------------------------------|

Every man is evil yes every man’s a liar     Unashamed with the wicked tongue singin’
                                             In the black soul choir 
                                 

[Post Chorus]                                                         [slows till end]
E|---0-----0---0---0-----0-----0---0---0-|---0-0-0--0—0-----0-0-0--0—0-----0-0-0--0—0-----0-0-0--0—0-|
B|---1-----1---1---1-----1-----1---1---1-|---3-3-3--3—3-----3-3-3--3—3-----3-3-3--3—3-----3-3-3--3—3-|
G|---0-----0-0-----0-----0-----0-0-----0-|---2-2-2--0—0-----2-2-2--0—0-----2-2-2--0—0-----2-2-2--0—0-|  x2
D|-----0h2-------2---------0h2-------2---|-0--------3—3---0--------3—3---0--------3—3---0--------3—3-|
A|-3-------------------3-----------------|-----------------------------------------------------------|
E|---------------------------------------|-----------------------------------------------------------|

Oh, oh, oh,                he rises in my way 

*********************************** 
| h Hammer-on  
***********************************                                                      

            
            
Suggest correction
Creating personal tab
Creating personal tab
You can edit any tab online and save it as your Personal.

You can edit, replace or remove any tab part or add personal notes – all changes will be seen only by you.

Personal tabs can be accessed anytime from any device, even offline.
Learn more »
Give kudos to tab author, rate the tab!
1 2 3 4 5
comments
print report bad tab
guest
You may want to rate the tab now too:
select rating
Wanna post a correction for this tab? Suggest correction