Oops, an error
Loading. Please wait.

First Fall Acoustic Tab

1,316 views 3 this week
no commentswrite comment
1 2 3 4 5
please rate
add to favorites
launch autoscroll
font size
0
reset
how to read this tab
guitar tuner
Autoscroll
slow
fast
+/-
esc
set tempo
stop
Help us to improve Ultimate-Guitar.com Take our survey!
×
Author
song: First Fall (Acoustic)
Artist: 16th Avenue


Heres the only chords in the song
     C    Em   D    G
e----3----3----3----3--------------------|
B----3----3----3----3--------------------|
G----0----0----2----0--------------------|
D----2----2----0----0--------------------|
A----3----2----0----2--------------------|
E---------0----2----3--------------------|


intro

     C    Em   D
e----3----3----3--------------------|
B----3----3----3--------------------|
G----0----0----2--------------------|
D----2----2----0--------------------| 2x
A----3----2----0--------------------|
E---------0----2--------------------|

then

G1
     C    Em   D
e----3----3----3--------------------|
B----3----3----3--------------------|
G----0----0----2--------------------|
D----2----2----0--------------------| 2x
A----3----2----0--------------------|
E---------0----2--------------------|

G2
e-------------------------------------------------    --------|
B-------------------------------------------------    --------|
G---9-9/12-12-12-12-12/12-9-11-11-11-11-11-11--9--    --14----|
D---x-x/-x--x-x-x-x-x--x--x--x--x--x--x--x--x--x-- 2x ---x----|
A---7-7/11-11-11-11-11/10-7-10-10-10-10-10-10--7--    --12----|
E-------------------------------------------------    --------|

verse
     C    Em   D
e----3----3----3--------------------|
B----3----3----3--------------------|
G----0----0----2--------------------|
D----2----2----0--------------------|
A----3----2----0--------------------|
E---------0----2--------------------|
every one new day i will take this far......

refrain
     C     Em     G
e----3-----3------3--------------------|
B----3-----3------3--------------------|
G----0-----0------0--------------------|
D----2-----2------0--------------------|
A----3-----2------2--------------------|
E----------0------3--------------------|
say love, you can feel you can't denie it, i'ts love....

     C     Em
e----3-----3--------------------------|
B----3-----3--------------------------|
G----0-----0--------------------------|
D----2-----2--------------------------|
A----3-----2--------------------------|
E----------0--------------------------|
and it's all for you

Chorus

     C     Em     G
e----3-----3------3--------------------|
B----3-----3------3--------------------|
G----0-----0------0--------------------|
D----2-----2------0--------------------| 3x
A----3-----2------2--------------------|
E----------0------3--------------------|
when i go to sleep, all i can see is you, oh no, no


intro

     C    Em   D
e----3----3----3--------------------|
B----3----3----3--------------------|
G----0----0----2--------------------|
D----2----2----0--------------------| 2x
A----3----2----0--------------------|
E---------0----2--------------------|

repeat verse
repeat refrain
repeat chorus

bridce
     C    Em   G    D
e----3----3----3----3----------------|
B----3----3----3----3----------------|
G----0----0----0----2----------------|
D----2----2----0----0----------------|
A----3----2----2----0----------------|
E---------0----3----2----------------|

repeat refrain
repeat chorus
Suggest correction
Give kudos to tab author, rate the tab!
1 2 3 4 5
comments
print report bad tab
guest
You may want to rate the tab now too:
select rating
Please do not post tabs as comments. Select "correction" instead!