Oops, an error
Loading. Please wait.

Demente Carnaval Tab

version 2
version 2

Whole song

14 views 1 this week
no commentswrite comment
1 2 3 4 5
3 more votes to show rating
add to favorites
launch autoscroll
font size
0
reset
how to read this tab
guitar tuner
Autoscroll
slow
fast
+/-
esc
set tempo
stop
Help us to improve Ultimate-Guitar.com Take our survey!
×
(A) Intro

e|-----3---------------------------3p2---0h2--------3-----2-0---
B|-------3-------------------3---3-----3-----3--------3---------
G|---0-----0---------------2---2------------------0-----0-------
D|---------------0----0--0--------------------------------------
A|------------0h2--0h2--------------------------2---------------
E|-3------------------------------------------------------------


    G  F#m   Em  D
e|--7--5-----3---2--|
B|--8--7-----5---3--|
G|--7--6-----4---2--| aqui vuelve a empezar desde el principio,
D|------------------| o sea, desde (A)
A|------------------|
E|------------------|

ese es el intro de la cancion que lo hace 2 veces, y después
empieza a cantar.
durante la canción pueden arpegiarlo que no queda mal, es como
más le guste a ustedes.

después en la parte de "Quiero saber que por...", va asi:

G                      D
Quiero saber que por siempre van a estar,
C                   D
Que nunca van a faltar.
G                     D
Que esta alegría no se terminara
C         D
Siempre, siempre a celebrar.

-------------------------------------------------------------
Espero que les sirva...
Quiero dedicar este tema a Coto. Te Quiero Pá !
cualquier cosa les dejo mi mail, preguntas o correcciones,
nada mas escribanme y respondo: aleshis_847@
Abrazo gente. " 1 Segundo es una joda "
Suggest correction
Give kudos to tab author, rate the tab!
1 2 3 4 5
comments
print report bad tab
guest
You may want to rate the tab now too:
select rating
Wanna post a correction for this tab? Suggest correction