Oops, an error
Loading. Please wait.

A Salute Bass Tab

by 2:54
19 views 3 this week
no commentswrite comment
1 2 3 4 5
2 more votes to show rating
add to favorites
launch autoscroll
font size
0
reset
guitar tuner
Autoscroll
slow
fast
+/-
esc
set tempo
stop
Help us to improve Ultimate-Guitar.com Take our survey!
×
Author
2:54 - A Salute
2:54 (Self titled album)

[Intro] 0:05
G|----------------------------------------------------------------------|
D|----------------------------------------------------------------------|
A|----------------------------------------------------------------------| x2
E|-5-5-5-5-5-5-5-5-5-5-5-5-5-5-5-5-8-8-8-8-8-8-8-8-8-8-8-8-10-10-10-10--|

[Verse] 0:20
G|----------------------------------------------------------------------|
D|----------------------------------------------------------------------|
A|----------------------------------------------------------------------| x4
E|-5-5-5-5-5-5-5-5-5-5-5-5-3-3-3-3-5-8-8-8-8-8-8-8-8-8-8-8-10-10-10-10--|

[Chorus] 0:55
G|--------------------------------------------------------------|
D|----9------------9-------------5------------5-----------------|
A|-7-----5--7---7-----7--7----3-----3--3---3-----3--3-----------|
E|---------------------------------------------------------5----|

G|---------------------------------------------------------------------|
D|---------------------------------------------------------------------|
A|---------------------------------------------------------------------|
E|-5-5-5-5-5-5-5-5-5-5-5-3-3-3-3-3-5-5-5-5-5-5-5-5-5-5-5-3-3-3-3-3-5---|


G|--------------------------------------------------------------------|
D|--------------------------------------------------------------------|
A|--------------------------------------------------------------------|
E|-8-8-8-8-8-8-8-8-8-8-8-10-10-10-10-8-8-8-8-8-8-8-8-8-8-10-10-10-10--|

[Intro] 1:33
G|----------------------------------------------------------------------|
D|----------------------------------------------------------------------|
A|----------------------------------------------------------------------| x2
E|-5-5-5-5-5-5-5-5-5-5-5-5-5-5-5-5-8-8-8-8-8-8-8-8-8-8-8-8-10-10-10-10--|

[Verse] 1:49
G|----------------------------------------------------------------------|
D|----------------------------------------------------------------------|
A|----------------------------------------------------------------------| x4
E|-5-5-5-5-5-5-5-5-5-5-5-5-3-3-3-3-5-8-8-8-8-8-8-8-8-8-8-8-10-10-10-10--|

Slight pause with E|-5~---5~-|

[Chorus] 2:30
G|-------------------------------------------------------------------------------|
D|----9------------9-------------5------------5----------------------------------|
A|-7-----5--7---7-----7--7----3-----3--3---3-----3--3-3-3-3-3-3-3-3-3-3-3-3-3-3--|
E|-------------------------------------------------------------------------------|

G|---------------------------------------------------------------------|
D|---------------------------------------------------------------------|    _
A|---------------------------------------------------------------------|     |
E|-5-5-5-5-5-5-5-5-5-5-5-3-3-3-3-3-5-5-5-5-5-5-5-5-5-5-5-3-3-3-3-3-5---|     |
                                                                             |
G|--------------------------------------------------------------------|      | x2
D|--------------------------------------------------------------------|      |
A|--------------------------------------------------------------------|     _|
E|-8-8-8-8-8-8-8-8-8-8-8-10-10-10-10-8-8-8-8-8-8-8-8-8-8-10-10-10-10--|

Short pause with E|-5~-|

[Outro] 3:32
G|----------------------------------------------------------------------|
D|----------------------------------------------------------------------|
A|----------------------------------------------------------------------| x2
E|-5-5-5-5-5-5-5-5-5-5-5-5-5-5-5-5-8-8-8-8-8-8-8-8-8-8-8-8-10-10-10-10--|

G|----------------------------------------------------------------------|
D|----------------------------------------------------------------------|
A|----------------------------------------------------------------------| x4
E|-5-5-5-5-5-5-5-5-5-5-5-5-3-3-3-3-5-8-8-8-8-8-8-8-8-8-8-8-10-10-10-10--|


| ~   Vibrato
Suggest correction
Give kudos to tab author, rate the tab!
1 2 3 4 5
comments
print report bad tab
guest
You may want to rate the tab now too:
select rating
Wanna post a correction for this tab? Suggest correction