Oops, an error
Loading. Please wait.

A Salute tab

by 2:54
7 views 1 this week
no commentswrite comment
1 2 3 4 5
3 more votes to show rating
add to favorites
×
Save as Personal and add changes to this tab that will be seen only by you. Learn more ›
×
You can save this tab as Personal to edit and correct it or add notes. All changes will be seen only by you. Learn more »
launch autoscroll
font size
0
reset
how to read this tab
guitar tuner
edit
Autoscroll
slow
fast
+/-
esc
set tempo
stop
Author
Difficulty
About this tab version
All parts arranged for two main guitars. Was this info helpful? Yes No
2:54
"A Salute"

Standard tuning.


[Intro]
 G2
e|--------------------------------|--------------------------------|
B|--------------------------------|--------------------------------|
G|2-2-2-2-2-2-2-2-2---------------|--------------------------------|
D|2-2-2-2-2-2-2-2-2---------------|--------------------------------|
A|0-0-0-0-0-0-0-0-0---------------|--------------------------------|
E|--------------------------------|--------------------------------|

  G1
e|--------------------------------|--------------------------------|\
B|--------------------------------|--------------------------------| |
G|--------------------------------|--------------------------------| |
D|14~-----------------------------|---------------/17-------------\| |
A|--------------------------------|--------------------------------| |
E|--------------------------------|--------------------------------| |
 |G2                                                                 |
e|--------------------------------|--------------------------------| |
B|--------------------------------|--------------------------------| |
G|2-2-2-2-2-2-2-2-2---------------|--------------------------------| |
D|2-2-2-2-2-2-2-2-2---------------|--------------------------------| |
A|0-0-0-0-0-0-0-0-0---------------|--------------------------------| |
E|--------------------------------|--------------------------------| |
                                                                     | 
                                                                     |X2  
e|--------------------------------|--------------------------------| |
B|--------------------------------|--------------------------------| |
G|--------------------------------|--------------------------------| |
D|10~-----------------------------|-------------------------------\| |
A|--------------------------------|--------------------------------| |
E|--------------------------------|--------------------------------| |
 |                                                                   |
e|--------------------------------|--------------------------------| |
B|--------------------------------|--------------------------------| |
G|5-5-5-5-5-5-5-5-5---------------|--------------------------------| |
D|5-5-5-5-5-5-5-5-5---------------|--------------------------------| |
A|3-3-3-3-3-3-3-3-3---------------|--------------------------------| |
E|--------------------------------|--------------------------------|/

[Verse] 
  G3 (G1,2 repeat Intro figures throughout)
e|----------------|----------------|----------------|----------------|
B|----------------|----------------|----------------|----------------|
G|2-2-2-2-2-2-2-2-|2-2-2-2-2-2-2-2-|5-5-5-5-5-5-5-5-|5-5-5-5-5-5-5-5-|
D|2-2-2-2-2-2-2-2-|2-2-2-2-2-2-2-2-|5-5-5-5-5-5-5-5-|5-5-5-5-5-5-5-5-|
A|0-0-0-0-0-0-0-0-|0-0-0-0-0-0-0-0-|3-3-3-3-3-3-3-3-|3-3-3-3-3-3-3-3-|
E|----------------|----------------|----------------|----------------|
 |G4                                                                   X4 
e|----------------|------8-8-8-8-8-|----------------|----------------|
B|5-5-5-5-5-5-5-5-|5-5-5-----------|8-8-8-8-8-8-8-8-|8-8-8-8-8-8-8-8-|
G|----------------|----------------|----------------|----------------|
D|----------------|----------------|----------------|----------------|
A|----------------|----------------|----------------|----------------|
E|----------------|----------------|----------------|----------------|


[Pre-Chorus]
  G3
e|------------------------|------------------------|------------------------|------------------------|
B|------------------------|------------------------|------------------------|------------------------|
G|9--9--9--9--9--9--9--9--|9--9--9--9--9--9--9--9--|9--9--9--9--9--9--9--9--|9--9--9--9--9--9--9--9--|
D|9--9--9--9--9--9--9--9--|9--9--9--9--9--9--9--9--|9--9--9--9--9--9--9--9--|9--9--9--9--9--9--9--9--|
A|7--7--7--7--7--7--7--7--|7--7--7--7--7--7--7--7--|7--7--7--7--7--7--7--7--|7--7--7--7--7--7--7--7--|
E|------------------------|------------------------|------------------------|------------------------|
 |G4
e|15-12-------------------|------------------------|15-12-------------------|------------------------|
B|------15-12-------------|------------------------|------15-12-------------|------------------------|
G|------------14-12-------|------------------------|------------14-12-------|------------------------|
D|------------------14-12-|------------------------|------------------14-12-|------------------------|
A|------------------------|14-12----------------12-|------------------------|14-12----------------12-|
E|------------------------|------15-12-10-12-15----|------------------------|------15-12-10-12-15----|


e|------------------------|------------------------|------------------------|------------------------|
B|------------------------|------------------------|------------------------|------------------------|
G|5--5--5--5--5--5--5--5--|5--5--5--5--5--5--5--5--|5--5--5--5--5--5--5--5--|5--5--5--5--5--5--5--5--|
D|5--5--5--5--5--5--5--5--|5--5--5--5--5--5--5--5--|5--5--5--5--5--5--5--5--|5--5--5--5--5--5--5--5--|
A|3--3--3--3--3--3--3--3--|3--3--3--3--3--3--3--3--|3--3--3--3--3--3--3--3--|3--3--3--3--3--3--3--3--|
E|------------------------|------------------------|------------------------|------------------------|
 |
e|15-12-------------------|------------------------|15-12-------------------|------------------------|
B|------15-12-------------|------------------------|------15-12-------------|------------------------|
G|------------14-12-------|------------------------|------------14-12-------|------------------------|
D|------------------14-12-|------------------------|------------------14-12-|------------------------|
A|------------------------|14-12----------------12-|------------------------|14-12----------------12-|
E|------------------------|------15-12-10-12-15----|------------------------|------15-12-10-12-15----|

  G3  dip whammy bar
e|------------------------|------------------------|
B|0~----------------------|------------------------|
G|2~----------------------|------------------------|
D|2~----------------------|------------------------|
A|0~----------------------|------------------------|
E|------------------------|------------------------|

[Chorus]
  G4
e|---19-15----17-------15-|------17-------19-------|17-------15-------17----|---19-------17-------15-|
B|17-------17----15-17----|15-17----15-17----15-17-|---15-17----15-17----15-|17----15-17----15-17----|
G|------------------------|------------------------|------------------------|------------------------|
D|------------------------|------------------------|------------------------|------------------------|
A|------------------------|------------------------|------------------------|------------------------|
E|------------------------|------------------------|------------------------|------------------------|


e|------17-------19-------|17-------15-------17----|---19-------17-------15-|------17-------19-------|
B|15-17----15-17----15-17-|---15-17----15-17----15-|17----15-17----17-15----|15-17----15-17----15-17-|
G|------------------------|------------------------|------------------------|------------------------|
D|------------------------|------------------------|------------------------|------------------------|
A|------------------------|------------------------|------------------------|------------------------|
E|------------------------|------------------------|------------------------|------------------------||



[Break]
  G1
e|--------------------------------|--------------------------------|\
B|--------------------------------|--------------------------------| |
G|--------------------------------|--------------------------------| |
D|14~-----------------------------|---------------/17-------------\| |
A|--------------------------------|--------------------------------| |
E|--------------------------------|--------------------------------| |
 |G2                                                                 |
e|--------------------------------|--------------------------------| |
B|--------------------------------|--------------------------------| |
G|2-2-2-2-2-2-2-2-2---------------|--------------------------------| |
D|2-2-2-2-2-2-2-2-2---------------|--------------------------------| |
A|0-0-0-0-0-0-0-0-0---------------|--------------------------------| |
E|--------------------------------|--------------------------------| |
                                                                     | 
                                                                     |X2  
e|--------------------------------|--------------------------------| |
B|--------------------------------|--------------------------------| |
G|--------------------------------|--------------------------------| |
D|10~-----------------------------|-------------------------------\| |
A|--------------------------------|--------------------------------| |
E|--------------------------------|--------------------------------| |
 |                                                                   |
e|--------------------------------|--------------------------------| |
B|--------------------------------|--------------------------------| |
G|5-5-5-5-5-5-5-5-5---------------|--------------------------------| |
D|5-5-5-5-5-5-5-5-5---------------|--------------------------------| |
A|3-3-3-3-3-3-3-3-3---------------|--------------------------------| |
E|--------------------------------|--------------------------------|/

[Verse] 
  G3 (G1,2 repeat Intro/Break figures throughout)
e|----------------|----------------|----------------|----------------|
B|----------------|----------------|----------------|----------------|
G|2-2-2-2-2-2-2-2-|2-2-2-2-2-2-2-2-|5-5-5-5-5-5-5-5-|5-5-5-5-5-5-5-5-|
D|2-2-2-2-2-2-2-2-|2-2-2-2-2-2-2-2-|5-5-5-5-5-5-5-5-|5-5-5-5-5-5-5-5-|
A|0-0-0-0-0-0-0-0-|0-0-0-0-0-0-0-0-|3-3-3-3-3-3-3-3-|3-3-3-3-3-3-3-3-|
E|----------------|----------------|----------------|----------------|
 |G4                                                                   X4 
e|----------------|------8-8-8-8-8-|----------------|----------------|
B|5-5-5-5-5-5-5-5-|5-5-5-----------|8-8-8-8-8-8-8-8-|8-8-8-8-8-8-8-8-|
G|----------------|----------------|----------------|----------------|
D|----------------|----------------|----------------|----------------|
A|----------------|----------------|----------------|----------------|
E|----------------|----------------|----------------|----------------|

  G3  dip whammy bar
e|------------------------|------------------------|------------------------|------------------------|
B|0~----------------------|------------------------|0~----------------------|------------------------|
G|2~----------------------|------------------------|2~----------------------|------------------------|
D|2~----------------------|------------------------|2~----------------------|------------------------|
A|0~----------------------|------------------------|0~----------------------|------------------------|
E|------------------------|------------------------|------------------------|------------------------|


[Pre-Chorus]
  G3
e|------------------------|------------------------|------------------------|------------------------|
B|------------------------|------------------------|------------------------|------------------------|
G|9--9--9--9--9--9--9--9--|9--9--9--9--9--9--9--9--|9--9--9--9--9--9--9--9--|9--9--9--9--9--9--9--9--|
D|9--9--9--9--9--9--9--9--|9--9--9--9--9--9--9--9--|9--9--9--9--9--9--9--9--|9--9--9--9--9--9--9--9--|
A|7--7--7--7--7--7--7--7--|7--7--7--7--7--7--7--7--|7--7--7--7--7--7--7--7--|7--7--7--7--7--7--7--7--|
E|------------------------|------------------------|------------------------|------------------------|
 |G4
e|15-12-------------------|------------------------|15-12-------------------|------------------------|
B|------15-12-------------|------------------------|------15-12-------------|------------------------|
G|------------14-12-------|------------------------|------------14-12-------|------------------------|
D|------------------14-12-|------------------------|------------------14-12-|------------------------|
A|------------------------|14-12----------------12-|------------------------|14-12----------------12-|
E|------------------------|------15-12-10-12-15----|------------------------|------15-12-10-12-15----|


e|------------------------|------------------------|------------------------|------------------------|
B|------------------------|------------------------|------------------------|------------------------|
G|5--5--5--5--5--5--5--5--|5--5--5--5--5--5--5--5--|5--5--5--5--5--5--5--5--|5--5--5--5--5--5--5--5--|
D|5--5--5--5--5--5--5--5--|5--5--5--5--5--5--5--5--|5--5--5--5--5--5--5--5--|5--5--5--5--5--5--5--5--|
A|3--3--3--3--3--3--3--3--|3--3--3--3--3--3--3--3--|3--3--3--3--3--3--3--3--|3--3--3--3--3--3--3--3--|
E|------------------------|------------------------|------------------------|------------------------|
 |
e|15-12-------------------|------------------------|15-12-------------------|------------------------|
B|------15-12-------------|------------------------|------15-12-------------|------------------------|
G|------------14-12-------|------------------------|------------14-12-------|------------------------|
D|------------------14-12-|------------------------|------------------14-12-|------------------------|
A|------------------------|14-12----------------12-|------------------------|14-12----------------12-|
E|------------------------|------15-12-10-12-15----|------------------------|------15-12-10-12-15----|

Rest four bars, then...

[Chorus]
  G4
e|---19-15----17-------15-|------17-------19-------|17-------15-------17----|---19-------17-------15-|
B|17-------17----15-17----|15-17----15-17----15-17-|---15-17----15-17----15-|17----15-17----15-17----|
G|------------------------|------------------------|------------------------|------------------------|
D|------------------------|------------------------|------------------------|------------------------|
A|------------------------|------------------------|------------------------|------------------------|
E|------------------------|------------------------|------------------------|------------------------|

                                                                                                      X2
e|------17-------19-------|17-------15-------17----|---19-------17-------15-|------17-------19-------|
B|15-17----15-17----15-17-|---15-17----15-17----15-|17----15-17----17-15----|15-17----15-17----15-17-|
G|------------------------|------------------------|------------------------|------------------------|
D|------------------------|------------------------|------------------------|------------------------|
A|------------------------|------------------------|------------------------|------------------------|
E|------------------------|------------------------|------------------------|------------------------|

  G3  dip whammy bar
e|----------------|----------------|
B|0~--------------|----------------|
G|2~--------------|----------------|
D|2~--------------|----------------|
A|0~--------------|----------------|
E|----------------|----------------|

[Outro] 
  G3 (G1,2 repeat Intro/Break figures throughout)
e|----------------|----------------|----------------|----------------|
B|----------------|----------------|----------------|----------------|
G|2-2-2-2-2-2-2-2-|2-2-2-2-2-2-2-2-|5-5-5-5-5-5-5-5-|5-5-5-5-5-5-5-5-|
D|2-2-2-2-2-2-2-2-|2-2-2-2-2-2-2-2-|5-5-5-5-5-5-5-5-|5-5-5-5-5-5-5-5-|
A|0-0-0-0-0-0-0-0-|0-0-0-0-0-0-0-0-|3-3-3-3-3-3-3-3-|3-3-3-3-3-3-3-3-|
E|----------------|----------------|----------------|----------------|
 |G4                                                                   X4 
e|----------------|------8-8-8-8-8-|----------------|----------------|
B|5-5-5-5-5-5-5-5-|5-5-5-----------|8-8-8-8-8-8-8-8-|8-8-8-8-8-8-8-8-|
G|----------------|----------------|----------------|----------------|
D|----------------|----------------|----------------|----------------|
A|----------------|----------------|----------------|----------------|
E|----------------|----------------|----------------|----------------|



************************************

| ~   Vibrato

************************************

            
            
Suggest correction
Creating personal tab
Creating personal tab
You can edit any tab online and save it as your Personal.

You can edit, replace or remove any tab part or add personal notes – all changes will be seen only by you.

Personal tabs can be accessed anytime from any device, even offline.
Learn more »
Give kudos to tab author, rate the tab!
1 2 3 4 5
comments
print report bad tab
guest
You may want to rate the tab now too:
select rating
Wanna post a correction for this tab? Suggest correction