Oops, an error
Loading. Please wait.

Easy Undercover Bass Tab

by 2:54
7 views 1 this week
no commentswrite comment
1 2 3 4 5
2 more votes to show rating
add to favorites
launch autoscroll
font size
0
reset
guitar tuner
Autoscroll
slow
fast
+/-
esc
set tempo
stop
Help us to improve Ultimate-Guitar.com Take our survey!
×
Author
2:54 - Easy Undercover
2:54 (Self titled album)

Haven't written the times like I usually do because essentially it's just 2 parts repeated with the break.

[Verse]
G|---------------------------------------------------------------------------|
D|---------------------------------------------------------------------------|
A|-3-3-3-3-3-3-3-3-3-3-3-3-3-3-3-3-2-2-2-2-2-2-2-2-/7-7-7-7-7-7-7-7-7--------| x8
E|---------------------------------------------------------------------------|

[Chorus]
G|---------------------------------------------------------------------------|
D|---------------------------------------------------------------------------|
A|-3-3-3-3-3-3-3-3-3-3-3-3-/5-5-5-5-5-\2-2-2-2-2-2-2-/7-7-7-7-7-7-7-7--------| x2
E|---------------------------------------------------------------------------|

[Verse]
G|---------------------------------------------------------------------------|
D|---------------------------------------------------------------------------|
A|-3-3-3-3-3-3-3-3-3-3-3-3-3-3-3-3-2-2-2-2-2-2-2-2-/7-7-7-7-7-7-7-7-7--------| x8
E|---------------------------------------------------------------------------|

[Chorus]
G|---------------------------------------------------------------------------|
D|---------------------------------------------------------------------------|
A|-3-3-3-3-3-3-3-3-3-3-3-3-/5-5-5-5-5-\2-2-2-2-2-2-2-/7-7-7-7-7-7-7-7--------| x2
E|---------------------------------------------------------------------------|

[Verse]
G|---------------------------------------------------------------------------|
D|---------------------------------------------------------------------------|
A|-3-3-3-3-3-3-3-3-3-3-3-3-3-3-3-3-2-2-2-2-2-2-2-2-/7-7-7-7-7-7-7-7-7--------| x2
E|---------------------------------------------------------------------------|

Pause

[Break]
G|-----------------------------------------------------------------|
D|-----------------------------------------------------------------|
A|-3-3-3-3-3-3-3-3-3-3-7-7-7-7-5-5-5-5-5-5-5-5-5-5-5-5-5-5-5-5-----| x3
E|-----------------------------------------------------------------|


[Verse]
G|---------------------------------------------------------------------------|
D|---------------------------------------------------------------------------|
A|-3-3-3-3-3-3-3-3-3-3-3-3-3-3-3-3-2-2-2-2-2-2-2-2-/7-7-7-7-7-7-7-7-7--------| x2
E|---------------------------------------------------------------------------|

| /   Slide up
| \   Slide down
Suggest correction
Give kudos to tab author, rate the tab!
1 2 3 4 5
comments
print report bad tab
guest
You may want to rate the tab now too:
select rating
Wanna post a correction for this tab? Suggest correction