Oops, an error
Loading. Please wait.

Easy Undercover tab

by 2:54
37 views 1 this week
no commentswrite comment
1 2 3 4 5
3 more votes to show rating
add to favorites
×
Save as Personal and add changes to this tab that will be seen only by you. Learn more ›
×
You can save this tab as Personal to edit and correct it or add notes. All changes will be seen only by you. Learn more »
launch autoscroll
font size
0
reset
how to read this tab
guitar tuner
edit
Autoscroll
slow
fast
+/-
esc
set tempo
stop
Author
Difficulty
About this tab version
Includes lead and rhythm guitar parts. Was this info helpful? Yes No
2:54
"Easy Undercover"

Standard tuning


[Intro]
  G1
e|----------------|----------------|----------------|----------------|
B|----------------|----------------|----------------|----------------|
G|----------------|----------------|----------------|----------------|
D|----------------|----------------|----------------|----------------| X2
A|3---------------|----------------|2--------------/|7---------------|
E|----------------|----------------|----------------|----------------|


[Verse]
  G2
e|--------------------------------|--------------------------------|\
B|--------------------------------|--------------------------------| |
G|--------5-------5---5-------5---|----5-------7-/-7---9---9---\---| |
D|--------x-------x---x-------x---|----x-------x---x---x---x-------| |
A|--------3-------3---3-------3---|----3-------5-/-5---7---7---\---| |
E|--------------------------------|--------------------------------| |
                                                                     |
e|--------------------------------|--------------------------------| |
B|--------------------------------|--------------------------------| |
G|4~~~----------------------------|----7/9\7-------5/7\5-------4/5\| |
D|x-------------------------------|----x-x-x-------x-x-x-------x-x-| |
A|2~~~----------------------------|----5/7\5-------3/5\3-------2/3\| |
E|--------------------------------|--------------------------------| |
                                                                     |X3
e|--------------------------------|--------------------------------| |
B|--------------------------------|--------------------------------| |
G|4~~~----------------------------|--------9---9-------7-------5-\-| | 
D|x-------------------------------|--------x---x-------x-------x---| |
A|2~~~----------------------------|--------7---7-------5-------3-\-| |
E|--------------------------------|--------------------------------| |
                                                                     |
e|--------------------------------|--------------------------------| |
B|--------------------------------|--------------------------------| |
G|4~~~----------------------------|--------------------------------| |
D|x-------------------------------|--------------------------------| |
A|2~~~----------------------------|--------------------------------| |
E|--------------------------------|--------------------------------|/


[Chorus]
  G1
e|--------------------------------|--------------------------------|\
B|--------------------------------|--------------------------------| |
G|5---5---5---5---5---5---5---5---|5---5---5---5---7---7---7---7---| |
D|5---5---5---5---5---5---5---5---|5---5---5---5---7---7---7---7---| |
A|3---3---3---3---3---3---3---3---|3---3---3---3---5---5---5---5---| |
E|--------------------------------|--------------------------------| |
 |G2                                                                 |
e|--------------------------------|--------------------------------| |
B|--------------------------------|--------------------------------| |
G|--------------------------------|--------------------------------| |
D|-------/14--12--10--12----------|-------/14--12--10--12----------| |
A|----10----------------------10--|----10----------------------10--| |
E|--------------------------------|--------------------------------| |
                                                                     |
                                                                     |X2
e|--------------------------------|--------------------------------| |
B|--------------------------------|--------------------------------| |
G|4---4---4---4---4---4---4---4---|9---9---9---9---9---9---9---9---| |
D|4---4---4---4---4---4---4---4---|9---9---9---9---9---9---9---9---| |
A|2---2---2---2---2---2---2---2---|7---7---7---7---7---7---7---7---| |
E|--------------------------------|--------------------------------| |
 |                                                                   |
e|--------------------------------|--------------------------------| |
B|--------------------------------|--------------------------------| |
G|--------------------------------|--------------------------------| |
D|-------/14--12--10--12----------|-------/14--12--10--12----------| |
A|----10----------------------10--|----10----------------------10--| |
E|--------------------------------|--------------------------------|/

[Break]

  G1
e|----------------|----------------|----------------|----------------|
B|----------------|----------------|----------------|----------------|
G|----------------|----------------|----------------|----------------|
D|----------------|----------------|----------------|----------------|
A|3---------------|----------------|2--------------/|7---------------|
E|----------------|----------------|----------------|----------------|
 |G2
e|----------------|----------------|----------------|----------------|
B|----------------|----------------|0~~~------------|--------0~~~----|
G|----------------|----------------|----------------|----------------|
D|----------------|----------------|----------------|----------------|
A|----------------|----------------|----------------|----------------|
E|----------------|----------------|----------------|----------------|


e|----------------|----------------|----------------|----------------|
B|----------------|----------------|----------------|----------------|
G|----------------|----------------|----------------|----------------|
D|----------------|----------------|----------------|----------------|
A|3---------------|----------------|2--------------/|7---------------|
E|----------------|----------------|----------------|----------------|
 |
e|----------------|----------------|----------------|----------------|
B|12+-------------|--------12+-----|0~~~------------|----------------|
G|----------------|----------------|----------------|----------------|
D|----------------|----------------|----------------|----------------|
A|----------------|----------------|----------------|----------------|
E|----------------|----------------|----------------|----------------|


[Verse]
  G2
e|--------------------------------|--------------------------------|\
B|--------------------------------|--------------------------------| |
G|--------5-------5---5-------5---|----5-------7-/-7---9---9---\---| |
D|--------x-------x---x-------x---|----x-------x---x---x---x-------| |
A|--------3-------3---3-------3---|----3-------5-/-5---7---7---\---| |
E|--------------------------------|--------------------------------| |
                                                                     |
e|--------------------------------|--------------------------------| |
B|--------------------------------|--------------------------------| |
G|4~~~----------------------------|----7/9\7-------5/7\5-------4/5\| |
D|x-------------------------------|----x-x-x-------x-x-x-------x-x-| |
A|2~~~----------------------------|----5/7\5-------3/5\3-------2/3\| |
E|--------------------------------|--------------------------------| |
                                                                     |X2
e|--------------------------------|--------------------------------| |
B|--------------------------------|--------------------------------| |
G|4~~~----------------------------|--------9---9-------7-------5-\-| | 
D|x-------------------------------|--------x---x-------x-------x---| |
A|2~~~----------------------------|--------7---7-------5-------3-\-| |
E|--------------------------------|--------------------------------| |
                                                                     |
e|--------------------------------|--------------------------------| |
B|--------------------------------|--------------------------------| |
G|4~~~----------------------------|--------------------------------| |
D|x-------------------------------|--------------------------------| |
A|2~~~----------------------------|--------------------------------| |
E|--------------------------------|--------------------------------|/


[Chorus]
  G1
e|--------------------------------|--------------------------------|\
B|--------------------------------|--------------------------------| |
G|5---5---5---5---5---5---5---5---|5---5---5---5---7---7---7---7---| |
D|5---5---5---5---5---5---5---5---|5---5---5---5---7---7---7---7---| |
A|3---3---3---3---3---3---3---3---|3---3---3---3---5---5---5---5---| |
E|--------------------------------|--------------------------------| |
 |G2                                                                 |
e|--------------------------------|--------------------------------| |
B|--------------------------------|--------------------------------| |
G|--------------------------------|--------------------------------| |
D|-------/14--12--10--12----------|-------/14--12--10--12----------| |
A|----10----------------------10--|----10----------------------10--| |
E|--------------------------------|--------------------------------| |
                                                                     |
                                                                     |X2
e|--------------------------------|--------------------------------| |
B|--------------------------------|--------------------------------| |
G|4---4---4---4---4---4---4---4---|9---9---9---9---9---9---9---9---| |
D|4---4---4---4---4---4---4---4---|9---9---9---9---9---9---9---9---| |
A|2---2---2---2---2---2---2---2---|7---7---7---7---7---7---7---7---| |
E|--------------------------------|--------------------------------| |
 |                                                                   |
e|--------------------------------|--------------------------------| |
B|--------------------------------|--------------------------------| |
G|--------------------------------|--------------------------------| |
D|-------/14--12--10--12----------|-------/14--12--10--12----------| |
A|----10----------------------10--|----10----------------------10--| |
E|--------------------------------|--------------------------------|/

[Break]

  G1
e|----------------|----------------|----------------|----------------|\
B|----------------|----------------|----------------|----------------| |
G|----------------|----------------|----------------|----------------| |
D|----------------|----------------|----------------|----------------| |
A|3---------------|----------------|2--------------/|7---------------| |
E|----------------|----------------|----------------|----------------| |
 |G2                                                                   |X2
e|12N-------------|--------19N-----|12N-------------|--------19N-----| |
B|----------------|----------------|----------------|----------------| |
G|----------------|----------------|----------------|----------------| |
D|----------------|----------------|----------------|----------------| |
A|----------------|----------------|----------------|----------------| |
E|----------------|----------------|----------------|----------------|/


[Bridge]
  G2
e|0---------------|--------0-------|0---------------|----------------|
B|0---------------|--------0-------|0---------------|----------------|
G|0---------------|--------0-------|0---------------|----------------|
D|2---------------|--------5-------|4---------------|----------------| X4
A|3---------------|--------7-------|5---------------|----------------|
E|----------------|----------------|----------------|----------------|


[Chorus]

  G1
e|----------------|----------------|----------------|----------------|
B|----------------|----------------|----------------|----------------|
G|5-5-5-5-5-5-5-5-|5-5-5-5-7-7-7-7-|4-4-4-4-4-4-4-4-|9-9-9-9-9-9-9-9-|
D|5-5-5-5-5-5-5-5-|5-5-5-5-7-7-7-7-|4-4-4-4-4-4-4-4-|9-9-9-9-9-9-9-9-|
A|3-3-3-3-3-3-3-3-|3-3-3-3-5-5-5-5-|2-2-2-2-2-2-2-2-|7-7-7-7-7-7-7-7-|
E|----------------|----------------|----------------|----------------|
 |G2                                                                  
e|12N-------------|--------19N-----|12N-------------|--------19N-----|
B|----------------|----------------|----------------|----------------|
G|----------------|----------------|----------------|----------------|
D|----------------|----------------|----------------|----------------|
A|----------------|----------------|----------------|----------------|
E|----------------|----------------|----------------|----------------|



e|----------------|----------------|----------------|----------------|
B|----------------|----------------|----------------|----------------|
G|5-5-5-5-5-5-5-5-|5-5-5-5-7-7-7-7-|4-4-4-4-4-4-4-4-|9-9-9-9-9-9-9-9-|
D|5-5-5-5-5-5-5-5-|5-5-5-5-7-7-7-7-|4-4-4-4-4-4-4-4-|9-9-9-9-9-9-9-9-| Let ring
A|3-3-3-3-3-3-3-3-|3-3-3-3-5-5-5-5-|2-2-2-2-2-2-2-2-|7-7-7-7-7-7-7-7-|
E|----------------|----------------|----------------|----------------|
 |
e|12N-------------|--------19N-----|12N-------------|--------19------|
B|----------------|----------------|----------------|----------------|
G|----------------|----------------|----------------|----------------| Let ring
D|----------------|----------------|----------------|----------------|
A|----------------|----------------|----------------|----------------|
E|----------------|----------------|----------------|----------------|



***********************************
| /   Slide up
| \   Slide down
| ~   Vibrato w/ whammy bar
| +   Harmonic
| N   Tremolo pick
| x   Dead note
***********************************
Suggest correction
Creating personal tab
Creating personal tab
You can edit any tab online and save it as your Personal.

You can edit, replace or remove any tab part or add personal notes – all changes will be seen only by you.

Personal tabs can be accessed anytime from any device, even offline.
Learn more »
Give kudos to tab author, rate the tab!
1 2 3 4 5
comments
print report bad tab
guest
You may want to rate the tab now too:
select rating
Wanna post a correction for this tab? Suggest correction