Oops, an error
Loading. Please wait.

No Better Prize Bass Tab

by 2:54
7 views 7 this week
no commentswrite comment
1 2 3 4 5
3 more votes to show rating
add to favorites
launch autoscroll
font size
0
reset
guitar tuner
Autoscroll
slow
fast
+/-
esc
set tempo
stop
Help us to improve Ultimate-Guitar.com Take our survey!
×
Author
2:54 - No Better Prize
The Other I

[Intro] 0:00
G|----------------------------------------------|
D|----------------------------------------------|
A|--------2-4-5-4~----------7-9-5-4~--4h5--4----|
E|-0-0~----------------0~---------------------0-|

[Verse] 0:22
G|--------------------------------------------|
D|--------------------------------------------|
A|-------2-4-5-4~----------7-9-5-4~--4h5--4---| x4
E|--0~----------------0~----------------------|

[Chorus] 1:01
G|---------------------------------------------------------------------|
D|---------------------------------------------------------------------|
A|-2-2-2-2-2-2-2-2-2-2-2-2-2-2-2-2-3-3-3-3-3-3-3-3-3h7-7-7-7-5-5-5-5---| x4
E|---------------------------------------------------------------------|

[Post-Chorus] 1:44
G|-------------------------------------------|
D|-------------------------------------------|
A|-7-7-7-7-7-7-7-7-----7-7-7-7-7-7-7-7-7~----|
E|-------------------------------------------|

[Verse] 1:54
G|---------------------------------------------|
D|---------------------------------------------|
A|-------2-4-5-4~----------7-9-5-4~---4h5--4---| x3
E|--0~----------------0~-----------------------|

[Chorus] 2:33
G|---------------------------------------------------------------------|
D|---------------------------------------------------------------------|
A|-2-2-2-2-2-2-2-2-2-2-2-2-2-2-2-2-3-3-3-3-3-3-3-3-3h7-7-7-7-5-5-5-5---| x4
E|---------------------------------------------------------------------|

[Post-Chorus] 3:11
G|-----------------------------------------------------------------------| G|--------------------------|
D|-----------------------------------------------------------------------| D|--------------------------|
A|-12~--12-12h14~--14-14p10~--17-12~--12~--12-12h14~--14-14p10~--17-12~--| A|-7-7-7-7-7-7-7-7--2-4-5~--| x6
E|-----------------------------------------------------------------------| E|--------------------------|

[Outro] 4:06
G|---------------------------------------------------------------------|
D|---------------------------------------------------------------------|
A|-2-2-2-2-2-2-2-2-2-2-2-2-2-2-2-2-3-3-3-3-3-3-3-3-3h7-7-7-7-5-5-5-5---| x4 End on A|-2~-
E|---------------------------------------------------------------------|

| h   Hammer-on
| p   Pull-off
| ~   Vibrato
Suggest correction
Give kudos to tab author, rate the tab!
1 2 3 4 5
comments
print report bad tab
guest
You may want to rate the tab now too:
select rating
Wanna post a correction for this tab? Suggest correction