Oops, an error
Loading. Please wait.

Revolving Bass Tab

by 2:54
10 views 3 this week
no commentswrite comment
1 2 3 4 5
3 more votes to show rating
add to favorites
launch autoscroll
font size
0
reset
guitar tuner
Autoscroll
slow
fast
+/-
esc
set tempo
stop
Help us to improve Ultimate-Guitar.com Take our survey!
×
Author
2:54 - Revolving
2:54 (Self titled album)

[Intro] 0:06
G|---------------------------------------------------------|
D|---------------------------------------------------------|
A|-2-2-2-2-2-2-2-2-2-2-2-2-2-2-2-2-2-2-2-2-2-2-2-2-2-2-2-2-|
E|---------------------------------------------------------|

[Verse] 0:10
G|-----------------------------------------------------------------------------------|
D|-----------------------------------------------------------------------------------|
A|-2-2-2-2-2-2-2-2-2-2-2-2-2-2-2-2-2-2-2-2-2-2-2-2-5-5-5-5-5-5-5-5-5-5-5-5-7-7-7-7-7-| x2
E|-----------------------------------------------------------------------------------|

G|-----------------------------------------------------------------------------------|
D|-----------------------------------------------------------------------------------|
A|-2-2-2-2-2-2-2-2-2-2-2-2-2-2-2-2-2-2-2-2-2-2-2-2-5-5-5-5-5-5-5-5-5-5-5-5-5-5-5-5-5-| x2
E|-----------------------------------------------------------------------------------|

G|-------|
D|-------|
A|-2~----|   pause until chorus
E|-------|

[Chorus] 0:59
G|---------------------------------------------------------|
D|---------------------------------------------------------|
A|-2-2-2-2-2-2-2-2-2-2-2-2-2-2-2-2-2-2-2-2-2-2-2-2-2-2-2-2-| x6
E|---------------------------------------------------------|

[Post-Chorus] 1:30
G|-----------------------------------------------------------------------------------|
D|-----------------------------------------------------------------------------------|
A|-2-2-2-2-2-2-2-2-2-2-2-2-2-2-2-2-2-2-2-2-2-2-2-2-5-5-5-5-5-5-5-5-5-5-5-5-5-5-5-5-5-|
E|-----------------------------------------------------------------------------------|

G|-----------------------------------------------------------------------------------|
D|-----------------------------------------------------------------------------------|
A|-2-2-2-2-2-2-2-2-2-2-2-2-2-2-2-2-2-2-2-2-2-2-2-2-5-5-5-5-5-5-5-5-5-5-5-5-7-7-7-7-7-|
E|-----------------------------------------------------------------------------------|

[Verse] 1:50
G|-----------------------------------------------------------------------------------|
D|-----------------------------------------------------------------------------------|
A|-2-2-2-2-2-2-2-2-2-2-2-2-2-2-2-2-2-2-2-2-2-2-2-2-5-5-5-5-5-5-5-5-5-5-5-5-7-7-7-7-7-|
E|-----------------------------------------------------------------------------------|

G|-----------------------------------------------------------------------------------|
D|-----------------------------------------------------------------------------------|
A|-2-2-2-2-2-2-2-2-2-2-2-2-2-2-2-2-2-2-2-2-2-2-2-2-5-5-5-5-5-5-5-5-5-5-5-5-5-5-5-5-5-| x3
E|-----------------------------------------------------------------------------------|

[Chorus] 2:30
G|---------------------------------------------------------|
D|---------------------------------------------------------|
A|-2-2-2-2-2-2-2-2-2-2-2-2-2-2-2-2-2-2-2-2-2-2-2-2-2-2-2-2-| x6
E|---------------------------------------------------------|

[Outro] 3:10
G|---------------------------------------------------------|
D|---------------------------------------------------------|
A|-2-2-2-2-2-2-2-2-2-2-2-2-2-2-2-2-2-2-2-2-2-2-2-2-2-2-2-2-| Until end
E|---------------------------------------------------------|

~ Sustain
Suggest correction
Give kudos to tab author, rate the tab!
1 2 3 4 5
comments
print report bad tab
guest
You may want to rate the tab now too:
select rating
Wanna post a correction for this tab? Suggest correction