Oops, an error
Loading. Please wait.

Revolving tab

by 2:54
70 views 6 this week
no commentswrite comment
1 2 3 4 5
3 more votes to show rating
add to favorites
×
Save as Personal and add changes to this tab that will be seen only by you. Learn more ›
×
You can save this tab as Personal to edit and correct it or add notes. All changes will be seen only by you. Learn more »
launch autoscroll
font size
0
reset
how to read this tab
guitar tuner
edit
Autoscroll
slow
fast
+/-
esc
set tempo
stop
Author
Difficulty
2:54
"Revolving"


[Intro]

e|--------------------------------|--------------------------------|
B|--------------------------------|--------------------------------|
G|--------------------------------|--------------------------------|
D|9-9-9-9-9-9-9-9-9-9-9-9-9-9-9-9-|9-9-9-9-9-9-9-9-9-9-9-9-9-9-9-9-|
A|9-9-9-9-9-9-9-9-9-9-9-9-9-9-9-9-|9-9-9-9-9-9-9-9-9-9-9-9-9-9-9-9-|
E|7-7-7-7-7-7-7-7-7-7-7-7-7-7-7-7-|7-7-7-7-7-7-7-7-7-7-7-7-7-7-7-7-|
 |
e|--------------------------------|--------------------------------|
B|--------------------------------|--------------------------------|
G|--------------------------------|--------------------------------|
D|--------------------------------|--------------------------------|
A|--------------------------------|--------------------------------|
E|--------------------------------|--------------------------------|


e|--------------------------------|--------------------------------|
B|--------------------------------|--------------------------------|
G|--------------------------------|--------------------------------|
D|9-9-9-9-9-9-9-9-9-9-9-9-9-9-9-9-|9-9-9-9-9-9-9-9-9-9-9-9-9-9-9-9-|
A|9-9-9-9-9-9-9-9-9-9-9-9-9-9-9-9-|9-9-9-9-9-9-9-9-9-9-9-9-9-9-9-9-|
E|7-7-7-7-7-7-7-7-7-7-7-7-7-7-7-7-|7-7-7-7-7-7-7-7-7-7-7-7-7-7-7-7-|
 |
e|--------------------------------|--------------------------------|
B|--------------------------------|--------------------------------|
G|7-------------------------------|--------------------------------|
D|7--------let-ring---------------|--------------------------------|
A|5-------------------------------|--------------------------------|
E|--------------------------------|--------------------------------|


[Verse]

e|--------------------------------|--------------------------------|
B|--------------------------------|--------------------------------|
G|--------------------------------|--------------------------------|
D|9-9-9-9-9-9-9-9-9-9-9-9-9-9-9-9-|9-9-9-9-9-9-9-9-9-9-9-9-9-9-9-9-|
A|9-9-9-9-9-9-9-9-9-9-9-9-9-9-9-9-|9-9-9-9-9-9-9-9-9-9-9-9-9-9-9-9-|
E|7-7-7-7-7-7-7-7-7-7-7-7-7-7-7-7-|7-7-7-7-7-7-7-7-7-7-7-7-7-7-7-7-|
 |
e|--------------------------------|--------------------------------|
B|--------------------------------|--------------------------------|
G|--------7-7-7-7---------7-7-7-7-|--------7-7-7-7-6-6-7-7-6-6-----|
D|9-9-9-9---------9-9-9-9---------|9-9-9-9---------------------7-7-|
A|--------------------------------|--------------------------------|
E|--------------------------------|--------------------------------|
                                                                   \
                                                                     X4
                                                                   /            
e|--------------------------------|--------------------------------|
B|--------------------------------|--------------------------------|
G|7-7-7-7-7-7-7-7-7-7-7-7-7-7-7-7-|7-7-7-7-7-7-7-7-7-9-9-9-9-9-9-9-|
D|7-7-7-7-7-7-7-7-7-7-7-7-7-7-7-7-|7-7-7-7-7-7-7-7-7-9-9-9-9-9-9-9-|
A|5-5-5-5-5-5-5-5-5-5-5-5-5-5-5-5-|5-5-5-5-5-5-5-5-5-7-7-7-7-7-7-7-|
E|--------------------------------|--------------------------------|
 |
e|--------------------------------|--------------------------------|
B|--------------------------------|--------------------------------|
G|--------7-7-7-7---------7-7-7-7-|--------7-7-7-7-6-6-7-7-6-6-----|
D|9-9-9-9---------9-9-9-9---------|9-9-9-9---------------------7-7-|
A|--------------------------------|--------------------------------|
E|--------------------------------|--------------------------------|

keyboard enters fourth repeat:
e|10------------------------------|9---------------12--------------|
B|--------------------------------|--------------------------------|
G|--------------------------------|--------------------------------|
D|--------------------------------|--------------------------------|
A|--------------------------------|--------------------------------|
E|--------------------------------|--------------------------------|


[Pre-Chorus]

e|--------------------------------|--------------------------------|
B|--------------------------------|--------------------------------|
G|--------------------------------|--------------------------------|
D|--------------------------------|--------------------------------|
A|--------------------------------|--------------------------------|
E|--------------------------------|--------------------------------|
 |
e|--------------------------------|--------------------------------|
B|--------------------------------|--------------------------------|
G|7-------------------------------|------------------------9-----\\|
D|7-------------------------------|------------------------9-----\\|
A|5-------------------------------|------------------------7-----\\|
E|--------------------------------|--------------------------------|
                                                                   \
                                                                     X2
                                                                   / 
e|--------------------------------|--------------------------------|
B|--------------------------------|--------------------------------|
G|--------------------------------|--------------------------------|
D|--------------------------------|--------------------------------|
A|--------------------------------|--------------------------------|
E|--------------------------------|--------------------------------|
 |
e|--------------------------------|--------------------------------|
B|--------------------------------|--------------------------------|
G|6-------------------------------|--------------------------------|
D|6-------------------------------|--------------------------------|
A|4-------------------------------|--------------------------------|
E|--------------------------------|--------------------------------|


[Chorus]

e|--------------------------------|--------------------------------|
B|--------------------------------|--------------------------------|
G|--------------------------------|--------------------------------|
D|9-9-9-9-9-9-9-9-9-9-9-9-9-9-9-9-|9-9-9-9-9-9-9-9-9-9-9-9-9-9-9-9-|
A|9-9-9-9-9-9-9-9-9-9-9-9-9-9-9-9-|9-9-9-9-9-9-9-9-9-9-9-9-9-9-9-9-|
E|7-7-7-7-7-7-7-7-7-7-7-7-7-7-7-7-|7-7-7-7-7-7-7-7-7-7-7-7-7-7-7-7-|
 |
e|--------------------------------|--------------------------------|
B|--------------------------------|--------------------------------|
G|7-------------------------------|------------------------9-----\\|
D|7-------------------------------|------------------------9-----\\|
A|5-------------------------------|------------------------7-----\\|
E|--------------------------------|--------------------------------|
                                                                   \
                                                                     X2
                                                                   /
e|--------------------------------|--------------------------------|
B|--------------------------------|--------------------------------|
G|--------------------------------|--------------------------------|
D|9-9-9-9-9-9-9-9-9-9-9-9-9-9-9-9-|9-9-9-9-9-9-9-9-9-9-9-9-9-9-9-9-|
A|9-9-9-9-9-9-9-9-9-9-9-9-9-9-9-9-|9-9-9-9-9-9-9-9-9-9-9-9-9-9-9-9-|
E|7-7-7-7-7-7-7-7-7-7-7-7-7-7-7-7-|7-7-7-7-7-7-7-7-7-7-7-7-7-7-7-7-|
 |
e|--------------------------------|--------------------------------|
B|--------------------------------|--------------------------------|
G|6-------------------------------|--------------------------------|
D|6-------------------------------|--------------------------------|
A|4-------------------------------|--------------------------------|
E|--------------------------------|--------------------------------|


[Verse]

e|--------------------------------|--------------------------------|
B|--------------------------------|--------------------------------|
G|--------------------------------|--------------------------------|
D|9-9-9-9-9-9-9-9-9-9-9-9-9-9-9-9-|9-9-9-9-9-9-9-9-9-9-9-9-9-9-9-9-|
A|9-9-9-9-9-9-9-9-9-9-9-9-9-9-9-9-|9-9-9-9-9-9-9-9-9-9-9-9-9-9-9-9-|
E|7-7-7-7-7-7-7-7-7-7-7-7-7-7-7-7-|7-7-7-7-7-7-7-7-7-7-7-7-7-7-7-7-|
 |
e|--------------------------------|--------------------------------|
B|--------------------------------|--------------------------------|
G|--------7-7-7-7---------7-7-7-7-|--------7-7-7-7-6-6-7-7-6-6-----|
D|9-9-9-9---------9-9-9-9---------|9-9-9-9---------------------7-7-|
A|--------------------------------|--------------------------------|
E|--------------------------------|--------------------------------|
 |
e|10------------------------------|9---------------12--------------|
B|--------------------------------|--------------------------------|
G|--------------------------------|--------------------------------|
D|--------------------------------|--------------------------------|
A|--------------------------------|--------------------------------|
E|--------------------------------|--------------------------------|
                                                                   \
                                                                     X4
                                                                   /
e|--------------------------------|--------------------------------|
B|--------------------------------|--------------------------------|
G|7-7-7-7-7-7-7-7-7-7-7-7-7-7-7-7-|7-7-7-7-7-7-7-7-7-9-9-9-9-9-9-9-|
D|7-7-7-7-7-7-7-7-7-7-7-7-7-7-7-7-|7-7-7-7-7-7-7-7-7-9-9-9-9-9-9-9-|
A|5-5-5-5-5-5-5-5-5-5-5-5-5-5-5-5-|5-5-5-5-5-5-5-5-5-7-7-7-7-7-7-7-|
E|--------------------------------|--------------------------------|
 |
e|--------------------------------|--------------------------------|
B|--------------------------------|--------------------------------|
G|--------7-7-7-7---------7-7-7-7-|--------7-7-7-7-6-6-7-7-6-6-----|
D|9-9-9-9---------9-9-9-9---------|9-9-9-9---------------------7-7-|
A|--------------------------------|--------------------------------|
E|--------------------------------|--------------------------------|
 |
e|10------------------------------|9---------------12--------------|
B|--------------------------------|--------------------------------|
G|--------------------------------|--------------------------------|
D|--------------------------------|--------------------------------|
A|--------------------------------|--------------------------------|
E|--------------------------------|--------------------------------|


[Pre-Chorus]

e|--------------------------------|--------------------------------|
B|--------------------------------|--------------------------------|
G|--------------------------------|--------------------------------|
D|--------------------------------|--------------------------------|
A|--------------------------------|--------------------------------|
E|--------------------------------|--------------------------------|
 |
e|--------------------------------|--------------------------------|
B|--------------------------------|--------------------------------|
G|7-------------------------------|------------------------9-----\\|
D|7-------------------------------|------------------------9-----\\|
A|5-------------------------------|------------------------7-----\\|
E|--------------------------------|--------------------------------|
                                                                   \
                                                                     X2
                                                                   / 
e|--------------------------------|--------------------------------|
B|--------------------------------|--------------------------------|
G|--------------------------------|--------------------------------|
D|--------------------------------|--------------------------------|
A|--------------------------------|--------------------------------|
E|--------------------------------|--------------------------------|
 |
e|--------------------------------|--------------------------------|
B|--------------------------------|--------------------------------|
G|6-------------------------------|--------------------------------|
D|6-------------------------------|--------------------------------|
A|4-------------------------------|--------------------------------|
E|--------------------------------|--------------------------------|


[Chorus]

e|--------------------------------|--------------------------------|
B|--------------------------------|--------------------------------|
G|--------------------------------|--------------------------------|
D|9-9-9-9-9-9-9-9-9-9-9-9-9-9-9-9-|9-9-9-9-9-9-9-9-9-9-9-9-9-9-9-9-|
A|9-9-9-9-9-9-9-9-9-9-9-9-9-9-9-9-|9-9-9-9-9-9-9-9-9-9-9-9-9-9-9-9-|
E|7-7-7-7-7-7-7-7-7-7-7-7-7-7-7-7-|7-7-7-7-7-7-7-7-7-7-7-7-7-7-7-7-|
 |
e|--------------------------------|--------------------------------|
B|--------------------------------|--------------------------------|
G|7-------------------------------|------------------------9-----\\|
D|7-------------------------------|------------------------9-----\\|
A|5-------------------------------|------------------------7-----\\|
E|--------------------------------|--------------------------------|
                                                                   \
                                                                     X2
                                                                   /
e|--------------------------------|--------------------------------|
B|--------------------------------|--------------------------------|
G|--------------------------------|--------------------------------|
D|9-9-9-9-9-9-9-9-9-9-9-9-9-9-9-9-|9-9-9-9-9-9-9-9-9-9-9-9-9-9-9-9-|
A|9-9-9-9-9-9-9-9-9-9-9-9-9-9-9-9-|9-9-9-9-9-9-9-9-9-9-9-9-9-9-9-9-|
E|7-7-7-7-7-7-7-7-7-7-7-7-7-7-7-7-|7-7-7-7-7-7-7-7-7-7-7-7-7-7-7-7-|
 |
e|--------------------------------|--------------------------------|
B|--------------------------------|--------------------------------|
G|6-------------------------------|--------------------------------|
D|6-------------------------------|--------------------------------|
A|4-------------------------------|--------------------------------|
E|--------------------------------|--------------------------------|


[Outro]

Both guitars:
e|--------------------------------|--------------------------------|
B|--------------------------------|--------------------------------|
G|--------------------------------|--------------------------------|
D|9-9-9-9-9-9-9-9-9-9-9-9-9-9-9-9-|9-9-9-9-9-9-9-9-9-9-9-9-9-9-9-9-| X 4
A|9-9-9-9-9-9-9-9-9-9-9-9-9-9-9-9-|9-9-9-9-9-9-9-9-9-9-9-9-9-9-9-9-|
E|7-7-7-7-7-7-7-7-7-7-7-7-7-7-7-7-|7-7-7-7-7-7-7-7-7-7-7-7-7-7-7-7-|
                                                                   

e|--------------------------------|--------------------------------|
B|--------------------------------|--------------------------------|
G|--------------------------------|--------------------------------|
D|9-9-9-9-9-9-9-9-9-9-9-9-9-9-9-9-|9-9-9-9-9-9-9-9-9-9-9-9-9-9-9-9-|
A|9-9-9-9-9-9-9-9-9-9-9-9-9-9-9-9-|9-9-9-9-9-9-9-9-9-9-9-9-9-9-9-9-|
E|7-7-7-7-7-7-7-7-7-7-7-7-7-7-7-7-|7-7-7-7-7-7-7-7-7-7-7-7-7-7-7-7-|
 |Keyboard                                                           X 4
e|10------------------------------|9---------------12--------------|
B|--------------------------------|--------------------------------|
G|--------------------------------|--------------------------------|
D|--------------------------------|--------------------------------|
A|--------------------------------|--------------------------------|
E|--------------------------------|--------------------------------|


************************************

| r  Release
| b  Bend
| /  Slide up
| \  Slide down
| ~  Vibrato

************************************
Suggest correction
Creating personal tab
Creating personal tab
You can edit any tab online and save it as your Personal.

You can edit, replace or remove any tab part or add personal notes – all changes will be seen only by you.

Personal tabs can be accessed anytime from any device, even offline.
Learn more »
Give kudos to tab author, rate the tab!
1 2 3 4 5
comments
print report bad tab
guest
You may want to rate the tab now too:
select rating
Wanna post a correction for this tab? Suggest correction