Oops, an error
Loading. Please wait.

Scarlet tab

by 2:54
34 views 3 this week
no commentswrite comment
1 2 3 4 5
3 more votes to show rating
add to favorites
×
Save as Personal and add changes to this tab that will be seen only by you. Learn more ›
×
You can save this tab as Personal to edit and correct it or add notes. All changes will be seen only by you. Learn more »
launch autoscroll
font size
0
reset
how to read this tab
guitar tuner
edit
Autoscroll
slow
fast
+/-
esc
set tempo
stop
Author
Difficulty
About this tab version
Contains both rhythm and leads parts, including the solo. Was this info helpful? Yes No
2:54
"Scarlet"

Standard tuning.


[Intro]
 G1
e|--------------------------------|--------------------------------|
B|------------------------6h8p6---|------------------------6h8p6---|
G|----7---9-----------7-----------|----7---9-----------7-----------|
D|--------------------------------|--------------------------------|
A|0---------------0---------------|0---------------0---------------|
E|--------------------------------|--------------------------------|

  G1
e|--------------------------------|--------------------------------|
B|------------------------6h8p6---|------------------------6h8p6---|
G|----7---9-----------7-----------|----7---9-----------7-----------|
D|--------------------------------|--------------------------------|
A|0---------------0---------------|0---------------0---------------|
E|--------------------------------|--------------------------------|
 |G2
e|--------------------------------|--------------------------------|
B|/5~-----------------------------|----------------6/8~------------|
G|--------------------------------|--------------------------------|
D|--------------------------------|--------------------------------|
A|--------------------------------|--------------------------------|
E|--------------------------------|--------------------------------|


e|--------------------------------|--------------------------------|
B|------------------------6h8p6---|------------------------6h8p6---|
G|----7---9-----------7-----------|----7---9-----------7-----------|
D|--------------------------------|--------------------------------|
A|0---------------0---------------|0---------------0---------------|
E|--------------------------------|--------------------------------|
 |
e|--------------------------------|--------------------------------|
B|8--\5~--------------------------|------------8-/10---------------|
G|--------------------------------|--------------------------------|
D|--------------------------------|--------------------------------|
A|--------------------------------|--------------------------------|
E|--------------------------------|--------------------------------|


e|--------------------------------|--------------------------------|
B|------------------------6h8p6---|------------------------6h8p6---|
G|----7---9-----------7-----------|----7---9-----------7-----------|
D|--------------------------------|--------------------------------|
A|0---------------0---------------|0---------------0---------------|
E|--------------------------------|--------------------------------|
 |
e|--------------------------------|--------------------------------|
B|10-\8~--------------------------|----8--/10~-----10-b11-r10~-----|
G|--------------------------------|--------------------------------|
D|--------------------------------|--------------------------------|
A|--------------------------------|--------------------------------|
E|--------------------------------|--------------------------------|

[Verse]
  G1
e|--------------------------------|--------------------------------|
B|--------------------------------|--------------------------------|
G|--------------------------------|--------------------------------|
D|--------------------------------|--------------------------------|
A|--------------------------------|--------------------------------|
E|5-5-5-5-5-5-5-5-5-5-5-5-5-5-5-5-|5-5-5-5-5-5-5-5-5-5-5-5-5-5-5-5-|

  G1
e|--------------------------------|--------------------------------|
B|--------------------------------|--------------------------------|
G|--------------------------------|--------------------------------|
D|--------------------------------|--------------------------------|
A|--------------------------------|--------------------------------|
E|5-5-5-5-5-5-5-5-5-5-5-5-5-5-5-5-|5-5-5-5-5-5-5-5-5-5-5-5-5-5-5-5-|
 |G2
e|--------------------------------|--------------------------------|
B|--------------------------------|------------------------5---6---|
G|--------------------------------|--------------------------------|
D|--------------------------------|--------------------------------|
A|--------------------------------|--------------------------------|
E|--------------------------------|--------------------------------|


e|--------------------------------|--------------------------------|
B|--------------------------------|--------------------------------|
G|--------------------------------|--------------------------------|
D|--------------------------------|--------------------------------|
A|--------------------------------|--------------------------------|
E|1-1-1-1-1-1-1-1-1-1-1-1-1-1-1-1||1-1-1-1-1-1-1-1-1-1-1-1-1-1-1-1-|
 |
e|--------------------------------|--------------------------------|
B|5-------------------------------|6/8-------------6-----5---------|
G|--------------------------------|----------------------------5---|
D|--------------------------------|--------------------------------|
A|--------------------------------|--------------------------------|
E|--------------------------------|--------------------------------|


e|--------------------------------|--------------------------------|
B|--------------------------------|--------------------------------|
G|--------------------------------|--------------------------------|
D|--------------------------------|--------------------------------|
A|--------------------------------|--------------------------------|
E|5-5-5-5-5-5-5-5-5-5-5-5-5-5-5-5-|5-5-5-5-5-5-5-5-5-5-5-5-5-5-5-5-|
 |
e|--------------------------------|--------------------------------|
B|--------------------------------|------------------------6--/8---|
G|7--/9~--------------------------|--------------------------------|
D|--------------------------------|--------------------------------|
A|--------------------------------|--------------------------------|
E|--------------------------------|--------------------------------|


e|--------------------------------|--------------------------------|
B|--------------------------------|--------------------------------|
G|--------------------------------|--------------------------------|
D|--------------------------------|--------------------------------|
A|--------------------------------|--------------------------------|
E|5-5-5-5-5-5-5-5-5-5-5-5-5-5-5-5-|5-5-5-5-5-5-5-5-5-5-5-5-5-5-5-5-|
 |
e|--------------------------------|--------------------------------|
B|10~---------------------10-/8~--|8-----------------------8---////|
G|--------------------------------|--------------------------------|
D|--------------------------------|--------------------------------|
A|--------------------------------|--------------------------------|
E|--------------------------------|--------------------------------|


e|--------------------------------|--------------------------------|
B|--------------------------------|--------------------------------|
G|--------------------------------|--------------------------------|
D|--------------------------------|--------------------------------|
A|--------------------------------|--------------------------------|
E|1-1-1-1-1-1-1-1-1-1-1-1-1-1-1-1||1-1-1-1-1-1-1-1-1-1-1-1-1-1-1-1-|
 |
e|--------------------------------|--------------------------------|
B|13~-----------------------------|13b~--------------------13--\\\\|
G|--------------------------------|--------------------------------|
D|--------------------------------|--------------------------------|
A|--------------------------------|--------------------------------|
E|--------------------------------|--------------------------------|


e|--------------------------------|--------------------------------|
B|--------------------------------|--------------------------------|
G|--------------------------------|--------------------------------|
D|--------------------------------|--------------------------------|
A|5-5-5-5-5-5-5-5-5-5-5-5-5-5-5-5-|5-5-5-5-5-5-5-5-5-5-5-5-5-5-5-5-|
E|--------------------------------|--------------------------------|
 |
e|--------------------------------|--------------------------------|
B|8-----------------------8---\\\\|6---------------5---------------|
G|--------------------------------|--------------------------------|
D|--------------------------------|--------------------------------|
A|--------------------------------|--------------------------------|
E|--------------------------------|--------------------------------|


e|--------------------------------|--------------------------------|
B|--------------------------------|--------------------------------|
G|--------------------------------|--------------------------------|
D|--------------------------------|--------------------------------|
A|5~------------------------------|--------------------------------|
E|--------------------------------|--------------------------------|
 |    dip whammy bar
e|--------------------------------|--------------------------------|
B|5~~~----------------------------|--------------------------------|
G|--------------------------------|--------------------------------|
D|--------------------------------|--------------------------------|
A|--------------------------------|--------------------------------|
E|--------------------------------|--------------------------------|

[Chorus]

e|--------------------------------|--------------------------------|\
B|5-x-x-5-x-x-5-x-x-5-x-x-6-6-----|5-x-x-5-x-x-5-x-x-5-x-x-8-8-----| |
G|--------------------------------|--------------------------------| |
D|--------------------------------|--------------------------------| |
A|--------------------------------|--------------------------------| |
E|--------------------------------|--------------------------------| |
 |                                                                   |
e|--------------------------------|--------------------------------| |
B|--------------------------------|--------------------------------| |
G|14------------------------------|--------------------------------| |
D|14------------------------------|--------------------------------| |
A|12------------------------------|--------------------------------| |
E|--------------------------------|--------------------------------| |
                                                                     |
                                                                     |
e|--------------------------------|--------------------------------| |
B|5-x-x-5-x-x-5-x-x-5-x-x-6-6-----|5-x-x-5-x-x-5-x-x-5-x-x-8-8-----| |
G|--------------------------------|--------------------------------| |
D|--------------------------------|--------------------------------| |
A|--------------------------------|--------------------------------| |
E|--------------------------------|--------------------------------| |
 |                                                                   |
e|--------------------------------|--------------------------------| |
B|--------------------------------|--------------------------------| |
G|14------------------------------|--------------------------------| |
D|14------------------------------|--------------------------------| |
A|12------------------------------|--------------------------------| |
E|--------------------------------|--------------------------------| |
                                                                     |
                                                                     | X2
e|--------------------------------|--------------------------------| |
B|5-x-x-5-x-x-5-x-x-5-x-x-6-6-----|5-x-x-5-x-x-5-x-x-5-x-x-8-8-----| |
G|--------------------------------|--------------------------------| |
D|--------------------------------|--------------------------------| |
A|--------------------------------|--------------------------------| |
E|--------------------------------|--------------------------------| |
 |                                                                   |
e|--------------------------------|--------------------------------| |
B|--------------------------------|--------------------------------| |
G|10------------------------------|--------------------------------| |
D|10------------------------------|--------------------------------| |
A|8-------------------------------|--------------------------------| |
E|--------------------------------|--------------------------------| |
                                                                     |
                                                                     |
e|--------------------------------|--------------------------------| |
B|5-x-x-5-x-x-5-x-x-5-x-x-6-6-----|5-x-x-5-x-x-5-x-x-5-x-x-8-8-----| |
G|--------------------------------|--------------------------------| |
D|--------------------------------|--------------------------------| |
A|--------------------------------|--------------------------------| |
E|--------------------------------|--------------------------------| |
 |                                                                   |
e|--------------------------------|--------------------------------| |
B|--------------------------------|--------------------------------| |
G|--------------------------------|--------------------------------| |
D|12------------------------------|--------------------------------| |
A|12------------------------------|--------------------------------| |
E|10------------------------------|--------------------------------|/

[Break]
G1
e|--------------------------------|--------------------------------|
B|------------------------6h8p6---|------------------------6h8p6---|
G|----7---9-----------7-----------|----7---9-----------7-----------|
D|--------------------------------|--------------------------------| X2
A|0---------------0---------------|0---------------0---------------|
E|--------------------------------|--------------------------------|

[Verse]

e|--------------------------------|--------------------------------|
B|--------------------------------|--------------------------------|
G|--------------------------------|--------------------------------|
D|--------------------------------|--------------------------------|
A|--------------------------------|--------------------------------|
E|5-5-5-5-5-5-5-5-5-5-5-5-5-5-5-5-|5-5-5-5-5-5-5-5-5-5-5-5-5-5-5-5-|

  G1
e|--------------------------------|--------------------------------|
B|--------------------------------|--------------------------------|
G|--------------------------------|--------------------------------|
D|--------------------------------|--------------------------------|
A|--------------------------------|--------------------------------|
E|5-5-5-5-5-5-5-5-5-5-5-5-5-5-5-5-|5-5-5-5-5-5-5-5-5-5-5-5-5-5-5-5-|
 |G2
e|--------------------------------|--------------------------------|
B|--------------------------------|------------------------5---6---|
G|--------------------------------|--------------------------------|
D|--------------------------------|--------------------------------|
A|--------------------------------|--------------------------------|
E|--------------------------------|--------------------------------|


e|--------------------------------|--------------------------------|
B|--------------------------------|--------------------------------|
G|--------------------------------|--------------------------------|
D|--------------------------------|--------------------------------|
A|--------------------------------|--------------------------------|
E|1-1-1-1-1-1-1-1-1-1-1-1-1-1-1-1||1-1-1-1-1-1-1-1-1-1-1-1-1-1-1-1-|
 |
e|--------------------------------|--------------------------------|
B|5-------------------------------|6/8-------------6-----5---------|
G|--------------------------------|----------------------------5---|
D|--------------------------------|--------------------------------|
A|--------------------------------|--------------------------------|
E|--------------------------------|--------------------------------|


e|--------------------------------|--------------------------------|
B|--------------------------------|--------------------------------|
G|--------------------------------|--------------------------------|
D|--------------------------------|--------------------------------|
A|--------------------------------|--------------------------------|
E|5-5-5-5-5-5-5-5-5-5-5-5-5-5-5-5-|5-5-5-5-5-5-5-5-5-5-5-5-5-5-5-5-|
 |
e|--------------------------------|--------------------------------|
B|--------------------------------|------------------------6--/8---|
G|7--/9~--------------------------|--------------------------------|
D|--------------------------------|--------------------------------|
A|--------------------------------|--------------------------------|
E|--------------------------------|--------------------------------|


e|--------------------------------|--------------------------------|
B|--------------------------------|--------------------------------|
G|--------------------------------|--------------------------------|
D|--------------------------------|--------------------------------|
A|--------------------------------|--------------------------------|
E|5-5-5-5-5-5-5-5-5-5-5-5-5-5-5-5-|5-5-5-5-5-5-5-5-5-5-5-5-5-5-5-5-|
 |
e|--------------------------------|--------------------------------|
B|10~---------------------10-/8~--|8-----------------------8---////|
G|--------------------------------|--------------------------------|
D|--------------------------------|--------------------------------|
A|--------------------------------|--------------------------------|
E|--------------------------------|--------------------------------|


e|--------------------------------|--------------------------------|
B|--------------------------------|--------------------------------|
G|--------------------------------|--------------------------------|
D|--------------------------------|--------------------------------|
A|--------------------------------|--------------------------------|
E|1-1-1-1-1-1-1-1-1-1-1-1-1-1-1-1||1-1-1-1-1-1-1-1-1-1-1-1-1-1-1-1-|
 |
e|--------------------------------|--------------------------------|
B|13~-----------------------------|13b~--------------------13--\\\\|
G|--------------------------------|--------------------------------|
D|--------------------------------|--------------------------------|
A|--------------------------------|--------------------------------|
E|--------------------------------|--------------------------------|


e|--------------------------------|--------------------------------|
B|--------------------------------|--------------------------------|
G|--------------------------------|--------------------------------|
D|--------------------------------|--------------------------------|
A|5-5-5-5-5-5-5-5-5-5-5-5-5-5-5-5-|5-5-5-5-5-5-5-5-5-5-5-5-5-5-5-5-|
E|--------------------------------|--------------------------------|
 |
e|--------------------------------|--------------------------------|
B|8-----------------------8---\\\\|6---------------5---------------|
G|--------------------------------|--------------------------------|
D|--------------------------------|--------------------------------|
A|--------------------------------|--------------------------------|
E|--------------------------------|--------------------------------|


e|--------------------------------|--------------------------------|
B|--------------------------------|--------------------------------|
G|--------------------------------|--------------------------------|
D|--------------------------------|--------------------------------|
A|5~------------------------------|--------------------------------|
E|--------------------------------|--------------------------------|
 |    dip whammy bar
e|--------------------------------|--------------------------------|
B|5~~~----------------------------|--------------------------------|
G|--------------------------------|--------------------------------|
D|--------------------------------|--------------------------------|
A|--------------------------------|--------------------------------|
E|--------------------------------|--------------------------------|

[Chorus]

e|--------------------------------|--------------------------------|\
B|5-x-x-5-x-x-5-x-x-5-x-x-6-6-----|5-x-x-5-x-x-5-x-x-5-x-x-8-8-----| |
G|--------------------------------|--------------------------------| |
D|--------------------------------|--------------------------------| |
A|--------------------------------|--------------------------------| |
E|--------------------------------|--------------------------------| |
 |                                                                   |
e|--------------------------------|--------------------------------| |
B|--------------------------------|--------------------------------| |
G|14------------------------------|--------------------------------| |
D|14------------------------------|--------------------------------| |
A|12------------------------------|--------------------------------| |
E|--------------------------------|--------------------------------| |
                                                                     |
                                                                     |
e|--------------------------------|--------------------------------| |
B|5-x-x-5-x-x-5-x-x-5-x-x-6-6-----|5-x-x-5-x-x-5-x-x-5-x-x-8-8-----| |
G|--------------------------------|--------------------------------| |
D|--------------------------------|--------------------------------| |
A|--------------------------------|--------------------------------| |
E|--------------------------------|--------------------------------| |
 |                                                                   |
e|--------------------------------|--------------------------------| |
B|--------------------------------|--------------------------------| |
G|14------------------------------|--------------------------------| |
D|14------------------------------|--------------------------------| |
A|12------------------------------|--------------------------------| |
E|--------------------------------|--------------------------------| |
                                                                     |
                                                                     | X2
e|--------------------------------|--------------------------------| |
B|5-x-x-5-x-x-5-x-x-5-x-x-6-6-----|5-x-x-5-x-x-5-x-x-5-x-x-8-8-----| |
G|--------------------------------|--------------------------------| |
D|--------------------------------|--------------------------------| |
A|--------------------------------|--------------------------------| |
E|--------------------------------|--------------------------------| |
 |                                                                   |
e|--------------------------------|--------------------------------| |
B|--------------------------------|--------------------------------| |
G|10------------------------------|--------------------------------| |
D|10------------------------------|--------------------------------| |
A|8-------------------------------|--------------------------------| |
E|--------------------------------|--------------------------------| |
                                                                     |
                                                                     |
e|--------------------------------|--------------------------------| |
B|5-x-x-5-x-x-5-x-x-5-x-x-6-6-----|5-x-x-5-x-x-5-x-x-5-x-x-8-8-----| |
G|--------------------------------|--------------------------------| |
D|--------------------------------|--------------------------------| |
A|--------------------------------|--------------------------------| |
E|--------------------------------|--------------------------------| |
 |                                                                   |
e|--------------------------------|--------------------------------| |
B|--------------------------------|--------------------------------| |
G|--------------------------------|--------------------------------| |
D|12------------------------------|--------------------------------| |
A|12------------------------------|--------------------------------| |
E|10------------------------------|--------------------------------|/

[Solo]

e|--------------------------------|--------------------------------|
B|--------------------------------|--------------------------------|
G|--5h7p5\4-------4h5p4\2---------|--------------------5-----------|
D|--------------------------------|--5h7p5/9-----5h7p5-------------|
A|--------------------------------|--------------------------------|
E|--------------------------------|--------------------------------|
 |
e|--------------------------------|--------------------------------|
B|--------------------------------|--------------------------------|
G|--------------------------------|--------------------------------|
D|10------------------------------|9-------------------------------|
A|--------------------------------|--------------------------------|
E|--------------------------------|--------------------------------|


e|--------------------------------|--------------------------------|
B|--------------------------------|--------------------------------|
G|--4/5-7/9-----7-5\4-------------|--4/5---7-----------------------|
D|--------------------------------|--------------5-7/9\7-----------|
A|--------------------------------|--------------------------------|
E|--------------------------------|--------------------------------|
 |
e|--------------------------------|--------------------------------|
B|--------------------------------|--------------------------------|
G|--------------------------------|--------------------------------|
D|12------------------------------|7-------------------------------|
A|--------------------------------|--------------------------------|
E|--------------------------------|--------------------------------|


e|--------------------------------|--------------------------------|
B|--------------------------------|------------------------5b6r5---|
G|--4/5---7-----4/5---7---7b8r7---|--4/5---7-----4/5---7-----------|
D|--------------------------------|--------------------------------|
A|--------------------------------|--------------------------------|
E|--------------------------------|--------------------------------|
 |
e|--------------------------------|--------------------------------|
B|--------------------------------|--------------------------------|
G|--------------------------------|--------------------------------|
D|10------------------------------|9-------------------------------|
A|--------------------------------|--------------------------------|
E|--------------------------------|--------------------------------|


e|--------------------------------|--------------------10--10~-----|
B|--------------------------------|10---10-12b-10------------------|
G|--4/5---7-----4/5---7---7b8r7---|---12----------12---------------|
D|--------------------------------|--------------------------------|
A|--------------------------------|--------------------------------|
E|--------------------------------|--------------------------------|
 |
e|--------------------------------|--------------------------------|
B|--------------------------------|--------------------------------|
G|--------------------------------|--------------------------------|
D|12------------------------------|7-------------------------------|
A|--------------------------------|--------------------------------|
E|--------------------------------|--------------------------------|

Rest four beats, then...

[Chorus]

e|--------------------------------|--------------------------------|
B|5-x-x-5-x-x-5-x-x-5-x-x-6-6-----|5-x-x-5-x-x-5-x-x-5-x-x-8-8-----|
G|--------------------------------|--------------------------------|
D|--------------------------------|--------------------------------|
A|--------------------------------|--------------------------------|
E|--------------------------------|--------------------------------|
 |                                                                  
e|--------------------------------|--------------------------------|
B|--------------------------------|--------------------------------|
G|14------------------------------|--------------------------------|
D|14------------------------------|--------------------------------|
A|12------------------------------|--------------------------------|
E|--------------------------------|--------------------------------|
                                                                    
                                                                    
e|--------------------------------|--------------------------------|
B|5-x-x-5-x-x-5-x-x-5-x-x-6-6-----|5-x-x-5-x-x-5-x-x-5-x-x-8-8-----|
G|--------------------------------|--------------------------------|
D|--------------------------------|--------------------------------|
A|--------------------------------|--------------------------------|
E|--------------------------------|--------------------------------|
 |                                                                  
e|--------------------------------|--------------------------------|
B|--------------------------------|--------------------------------|
G|14------------------------------|--------------------------------|
D|14------------------------------|--------------------------------|
A|12------------------------------|--------------------------------|
E|--------------------------------|--------------------------------|
                                                                    
                                                                    
e|--------------------------------|--------------------------------|
B|5-x-x-5-x-x-5-x-x-5-x-x-6-6-----|5-x-x-5-x-x-5-x-x-5-x-x-8-8-----|
G|--------------------------------|--------------------------------|
D|--------------------------------|--------------------------------|
A|--------------------------------|--------------------------------|
E|--------------------------------|--------------------------------|
 |                                                                  
e|--------------------------------|--------------------------------|
B|--------------------------------|--------------------------------|
G|10------------------------------|--------------------------------|
D|10------------------------------|--------------------------------|
A|8-------------------------------|--------------------------------|
E|--------------------------------|--------------------------------|
                                                                    
                                                                    
e|--------------------------------|--------------------------------|
B|5-x-x-5-x-x-5-x-x-5-x-x-6-6-----|5-x-x-5-x-x-5-x-x-5-x-x-8-8-8-8-|
G|--------------------------------|--------------------------------|
D|--------------------------------|--------------------------------|
A|--------------------------------|--------------------------------|
E|--------------------------------|--------------------------------|
 |                                                                  
e|--------------------------------|--------------------------------|
B|--------------------------------|--------------------------------|
G|--------------------------------|--------------------------------|
D|12------------------------------|--------------------------------|
A|12------------------------------|--------------------------------|
E|10------------------------------|--------------------------------|



************************************

| x   Dead note
| h   Hammer-on
| p   Pull-off
| r   Release
| b   Bend
| /   Slide up
| \   Slide down
| ~   Vibrato

************************************

            
            
Suggest correction
Creating personal tab
Creating personal tab
You can edit any tab online and save it as your Personal.

You can edit, replace or remove any tab part or add personal notes – all changes will be seen only by you.

Personal tabs can be accessed anytime from any device, even offline.
Learn more »
Give kudos to tab author, rate the tab!
1 2 3 4 5
comments
print report bad tab
guest
You may want to rate the tab now too:
select rating
Wanna post a correction for this tab? Suggest correction