Oops, an error
Loading. Please wait.

Sleepwalker Bass Tab

by 2:54
25 views 1 this week
no commentswrite comment
1 2 3 4 5
3 more votes to show rating
add to favorites
launch autoscroll
font size
0
reset
guitar tuner
Autoscroll
slow
fast
+/-
esc
set tempo
stop
Help us to improve Ultimate-Guitar.com Take our survey!
×
Author
2:54 - Sleepwalker
The Other I
Standard Tuning

The Intro and Chorus may be slightly different but it sounds good nevertheless,and it's pretty fun to play.


[Intro] 0:01
G|-----------------------------|
D|-----------------------------|
A|-----------------------------| x4
E|-7~--19\12~--/17p12-14~------|


[Verse] 0:37
G|-------------------------------------------------------------------------------------------------|
D|-------------------------------------------------------------------------------------------------|
A|-------------------------------------------------------------------------------------------------| x2
E|-0-0-0-0-0-0-0-0-0-0-0-3-3-3-3-3-3-3-3-3-3-3-3-5-5-5-5-5-5-5-5-5-5-5-5-5-8-8-8-8-8-8-8-8-8-8-8-8-|


[Pre-Chrous] 1:07  Only difficult part of the song, listen very carefully to the changes
G|------------------------------------------------------------------------------------------------|
D|-------------12----------------12---------------12----------------12----------------12----------|
A|-------12-14----14-------12-14----14----14-12------14-------12-14----14-------12-14----14-------|
E|-12-14-------------12-14-------------12-------14------12-14-------------12-14-------------12-14-|

G|------------------------------------------------------------------------------------------------|
D|-------12----------------12----------------12----------------12---------------12----------------|
A|----------14-------12-14----14-------12-14----14-------12-14----14----14-12------14----14-12----|
E|-12-14-------12-14-------------12-14-------------12-14-------------12-------14------12-------14-|


[Chorus] 1:23  Same as Intro
G|-----------------------------|
D|-----------------------------|
A|-----------------------------| x4
E|-7~--19\12~--/17p12-14~------|


[Verse] 1:51
G|-------------------------------------------------------------------------------------------------|
D|-------------------------------------------------------------------------------------------------|
A|-------------------------------------------------------------------------------------------------| x2
E|-0-0-0-0-0-0-0-0-0-0-0-3-3-3-3-3-3-3-3-3-3-3-3-5-5-5-5-5-5-5-5-5-5-5-5-5-8-8-8-8-8-8-8-8-8-8-8-8-|


[Pre-Chorus] 2:19  Only difficult part of the song, listen very carefully to the changes
G|------------------------------------------------------------------------------------------------|
D|-------------12----------------12---------------12----------------12----------------12----------|
A|-------12-14----14-------12-14----14----14-12------14-------12-14----14-------12-14----14-------|
E|-12-14-------------12-14-------------12-------14------12-14-------------12-14-------------12-14-|

G|------------------------------------------------------------------------------------------------|
D|-------12----------------12----------------12----------------12---------------12----------------|
A|----------14-------12-14----14-------12-14----14-------12-14----14----14-12------14----14-12----|
E|-12-14-------12-14-------------12-14-------------12-14-------------12-------14------12-------14-|


[Chorus] 2:34  Same as Intro
G|-----------------------------|
D|-----------------------------|
A|-----------------------------| x4
E|-7~--19\12~--/17p12-14~------|


[Outro] 3:24
G|----------------|
D|----------------|
A|----------------| Repeat till end. End on E|-0~-
E|-0~--7~--0-2-3--|


Key:

/ - Slide up
\ - Slide down
~ - Sustain
p - Pull off
Suggest correction
Give kudos to tab author, rate the tab!
1 2 3 4 5
comments
print report bad tab
guest
You may want to rate the tab now too:
select rating
Wanna post a correction for this tab? Suggest correction