Oops, an error
Loading. Please wait.

The March Bass Tab

by 2:54
4 views 1 this week
no commentswrite comment
1 2 3 4 5
3 more votes to show rating
add to favorites
launch autoscroll
font size
0
reset
guitar tuner
Autoscroll
slow
fast
+/-
esc
set tempo
stop
Help us to improve Ultimate-Guitar.com Take our survey!
×
Author
2:54 - The March
Scarlet EP
Standard Tuning


[Verse] 0:04
G|--------------------------------------------------------------------------|
D|--------------------------------------------------------------------------|
A|--------------------------------------------------------------------------|
E|-7-7-7-7-7-7-7-7-7-7-7-7-7-7-7-7-10-10-10-10-10-10-10-10-10-10-10-10-10---|

G|--------------------------------------------------------------------------|
D|--------------------------------------------------------------------------|
A|--------------------------------------------------------------------------| Repeat verse twice
E|-7-7-7-7-7-7-7-7-7-7-7-7-7-7-7-8-8-8-8-5-5-5-5-5-5-5-3-3-3-3-2-2-2-2------|


[Chorus] 0:39
G|-------------------------------------------------------------------|
D|-------------------------------------------------------------------|
A|-------------------------------------------------------------------| x2
E|-5-5-5-5-5-5-5-5-5-5-5-5-5-5-8-8-8-8-8-8-8-8-8-8-8-8-8-------------|

G|-----------------------------------------------------------------|
D|-----------------------------------------------------------------|
A|-----------------------------------------------------------------|  x2
E|-5-5-5-5-5-5-5-5-5-5-5-5-5-5-8-8-8-8-8-8-8-8-8-8-8-8-8-/12\10----|


[Post Chorus] 1:14
G|-----------------------------------|
D|-----------------------------------|
A|-----------------------------------| x2
E|-5~--------8~---------/12/10-------|

[Verse] 1:32
G|--------------------------------------------------------------------------|
D|--------------------------------------------------------------------------|
A|--------------------------------------------------------------------------|
E|-7-7-7-7-7-7-7-7-7-7-7-7-7-7-7-7-10-10-10-10-10-10-10-10-10-10-10-10-10---|

G|--------------------------------------------------------------------------|
D|--------------------------------------------------------------------------|
A|--------------------------------------------------------------------------| Repeat verse twice
E|-7-7-7-7-7-7-7-7-7-7-7-7-7-7-7-8-8-8-8-5-5-5-5-5-5-5-3-3-3-3-2-2-2-2------|


[Chorus] 2:06
G|-----------------------------------------------------------------|
D|-----------------------------------------------------------------|
A|-----------------------------------------------------------------|  x4
E|-5-5-5-5-5-5-5-5-5-5-5-5-5-5-8-8-8-8-8-8-8-8-8-8-8-8-8-/12\10----|

Pause before Outro

[Outro] 2:59
G|----------------------------------|
D|----------------------------------|
A|----------------------------------| x6 end on E|-2~-
E|-/14\-2-2--2-7-7-7-7-3-3-3-3------|

Key:
/ - Slide up
\ - Slide down
~ - Sustain

Suggest correction
Give kudos to tab author, rate the tab!
1 2 3 4 5
comments
print report bad tab
guest
You may want to rate the tab now too:
select rating
Wanna post a correction for this tab? Suggest correction