Oops, an error
Loading. Please wait.

The Monaco Bass Tab

by 2:54
10 views 1 this week
no commentswrite comment
1 2 3 4 5
3 more votes to show rating
add to favorites
launch autoscroll
font size
0
reset
guitar tuner
Autoscroll
slow
fast
+/-
esc
set tempo
stop
Help us to improve Ultimate-Guitar.com Take our survey!
×
Author
2:54 - The Monaco
The Other I

[Intro] 0:27 (rhythm mirrors the guitars)
G|---------------------------------------------------------------------|
D|---------------------------------------------------------------------|
A|-0--0--0--0-0--0--0--0--0--0--0--0--3--3--3--3-3--3------------------| x2
E|----------------------------------------------------3--3--3--3-3--3--|

[Verse] 0:40
G|---------------------------------------------------------------------|
D|---------------------------------------------------------------------|
A|-0--0--0--0-0--0--0--0--0--0--0--0--3--3--3--3-3--3------------------| x4
E|----------------------------------------------------3--3--3--3-3--3--|

[Chorus] 1:03
G|------------------------------------------------------------------------------------------------------|
D|------------------------------------------------------------------------------------------------------|
A|------------------------------------------------------------------------------------------------------| 
E|-1--1--1--1-1--1--1--1--1--1-1--1--3--3--3--3-3--3--3--3--3--3-3--3--5--5--5--5-5--5--5--5--5--5-5--5-|

G|----------------------------------|
D|----------------------------------|
A|----------------------------------| Chorus x2
E|-8--8--8--8-8--8--8--8--8--8-8--8-|

[Verse] 1:34
G|---------------------------------------------------------------------|
D|---------------------------------------------------------------------|
A|-0--0--0--0-0--0--0--0--0--0--0--0--3--3--3--3-3--3------------------| x4
E|----------------------------------------------------3--3--3--3-3--3--|

G|-------------------------------|
D|-------------------------------|
A|-0~----3~---------0~----3~-----| 
E|-----------3~---------------3~-|

[Chorus] 2:09
G|------------------------------------------------------------------------------------------------------|
D|------------------------------------------------------------------------------------------------------|
A|------------------------------------------------------------------------------------------------------| 
E|-1--1--1--1-1--1--1--1--1--1-1--1--3--3--3--3-3--3--3--3--3--3-3--3--5--5--5--5-5--5--5--5--5--5-5--5-|

G|----------------------------------|
D|----------------------------------|
A|----------------------------------| Chorus x4
E|-8--8--8--8-8--8--8--8--8--8-8--8-|

Pause

[Outro] 3:45 (Rhythm of notes may be slightly different to that of the chorus)
G|------------------------------------------------------------------------------------------------------|
D|------------------------------------------------------------------------------------------------------|
A|------------------------------------------------------------------------------------------------------| 
E|-1--1--1--1-1--1--1--1--1--1-1--1--3--3--3--3-3--3--3--3--3--3-3--3--5--5--5--5-5--5--5--5--5--5-5--5-|

G|----------------------------------|
D|----------------------------------|
A|----------------------------------| Outro x2
E|-8--8--8--8-8--8--8--8--8--8-8--8-|

| ~   Vibrato
Suggest correction
Give kudos to tab author, rate the tab!
1 2 3 4 5
comments
print report bad tab
guest
You may want to rate the tab now too:
select rating
Wanna post a correction for this tab? Suggest correction