Oops, an error
Loading. Please wait.

Watcher Bass Tab

by 2:54
7 views 1 this week
no commentswrite comment
1 2 3 4 5
2 more votes to show rating
add to favorites
launch autoscroll
font size
0
reset
guitar tuner
Autoscroll
slow
fast
+/-
esc
set tempo
stop
Help us to improve Ultimate-Guitar.com Take our survey!
×
Author
2:54 - Watcher
2:54 (Self titled album)

[Intro/Verse] 0:16
G|---------------------------------------------------------------------------------|
D|-----7-----7---7-----7-----7---7-----10-----10---10--10-------10----10---10---10-|
A|---------------------------------------------------------------------------------|
E|-5-5---5-5---5---5-5---5-5---5---8-8----8-8----8----8----8-8----8-8----8----8----|

G|----------------------------------------------------------------------------------------------------|
D|-------12-------12---12----12-------12-------12----12-------12-------12----12-------12--------------|
A|----------------------------------------------------------------------------------------------------| x4
E|-10-10----10-10---10----10----10-10----10-10----10----10-10----10-10----10----10-10----10-10-8-8-8--|


[Chorus] 1:20
G|-------------------------------------------------------------------|
D|-------------------------------------------------------------------|
A|-------------------------------------------------9-9-9-7-9-9-9-9---| x4
E|-0-0-0-0-0-0-0-0-7-7-7-7-7-7-7-7-8-8-8-8-8-8-8-8-------------------|

[Verse] 1:55
G|---------------------------------------------------------------------------------|
D|-----7-----7---7-----7-----7---7-----10-----10---10--10-------10----10---10---10-|
A|---------------------------------------------------------------------------------|
E|-5-5---5-5---5---5-5---5-5---5---8-8----8-8----8----8----8-8----8-8----8----8----|

G|----------------------------------------------------------------------------------------------------|
D|-------12-------12---12----12-------12-------12----12-------12-------12----12-------12--------------|
A|----------------------------------------------------------------------------------------------------| x4
E|-10-10----10-10---10----10----10-10----10-10----10----10-10----10-10----10----10-10----10-10-8-8-8--|

[Chorus] 3:00
G|-------------------------------------------------------------------|
D|-------------------------------------------------------------------|
A|-------------------------------------------------9-9-9-7-9-9-9-9---| x4
E|-0-0-0-0-0-0-0-0-7-7-7-7-7-7-7-7-8-8-8-8-8-8-8-8-------------------|

Short pause before outro

[Outro] 3:40
G|---------------------------------------------------------------------------|
D|---------------------------------------------------------------------------|
A|---------------------------------------------------------------------------| x3
E|-0-0-0-0-0-0-0-0-7-7-7-7-7-7-7-7-8-8-8-8-8-8-8-8-8-8-8-8-10-10-10-10-------|

G|-------------------------------------------------------------------|
D|-------------------------------------------------------------------|
A|-------------------------------------------------9-9-9-7-9-9-9-9---| x2
E|-0-0-0-0-0-0-0-0-7-7-7-7-7-7-7-7-8-8-8-8-8-8-8-8-------------------|
Suggest correction
Give kudos to tab author, rate the tab!
1 2 3 4 5
comments
print report bad tab
guest
You may want to rate the tab now too:
select rating
Wanna post a correction for this tab? Suggest correction