Oops, an error
Loading. Please wait.

Youre Early Bass Tab

by 2:54
10 views 1 this week
1 commentread comment
1 2 3 4 5
1 last vote to show rating
add to favorites
launch autoscroll
font size
0
reset
guitar tuner
Autoscroll
slow
fast
+/-
esc
set tempo
stop
Help us to improve Ultimate-Guitar.com Take our survey!
×
Author
Difficulty
About this tab version
Bass part. Corrections and additions welcome. Was this info helpful? Yes No
 2:54
"You're Early"

Standard Tuning


[Intro]

G|----------------|----------------|----------------|----------------|
D|----------------|----------------|----------------|----------------|
A|----------------|----------------|----------------|6---------------|
E|4---------------|----------------|4---------------|----------------|

G|--------------------------------|--------------------------------|
D|--------------------------------|--------------------------------|
A|3-3-3-3-3-3-3-3-3-3-3-3-3-3-3-3-|3-3-3-3-3-3-3-3-3-3-3-3-3-3-3-3-|
E|--------------------------------|--------------------------------|

G|--------------------------------|--------------------------------|
D|--------------------------------|--------------------------------|
A|3-3-3-3-3-3-3-3-3-3-3-3-3-3-3-3-|3-3-3-3-3-3-3-3-3-3-3-3-3-3-3-3-|
E|--------------------------------|--------------------------------|

G|--------------------------------|--------------------------------|
D|--------------------------------|--------------------------------|
A|--------------------------------|--------------------------------|
E|4-4-4-4-4-4-4-4-4-4-4-4-4-4-4-4-|4-4-4-4-4-4-4-4-4-4-4-4-4-4-4-4-|

G|--------------------------------|--------------------------------|
D|--------------------------------|--------------------------------|
A|-------------------------------/|6-6-6-6-6-6-6-6-6-6-6-6-6-6-6-6-|
E|4-4-4-4-4-4-4-4-4-4-4-4-4-4-4-4-|--------------------------------|

G|--------------------------------|--------------------------------|
D|--------------------------------|--------------------------------|
A|3-3-3-3-3-3-3-3-3-3-3-3-3-3-3-3-|3-3-3-3-3-3-3-3-3-3-3-3-3-3-3-3-|
E|--------------------------------|--------------------------------|

G|--------------------------------|--------------------------------|
D|--------------------------------|--------------------------------|
A|3-3-3-3-3-3-3-3-3-3-3-3-3-3-3-3-|3-3-3-3-3-3-3-3-3-3-3-3-3-3-3-3-|
E|--------------------------------|--------------------------------|

G|--------------------------------|--------------------------------|
D|--------------------------------|--------------------------------|
A|--------------------------------|--------------------------------|
E|4-4-4-4-4-4-4-4-4-4-4-4-4-4-4-4-|4-4-4-4-4-4-4-4-4-4-4-4-4-4-4-4-|

G|--------------------------------|--------------------------------|
D|--------------------------------|--------------------------------|
A|-------------------------------/|6-6-6-6-6-6-6-6-6-6-6-6-6-6-6-6-|
E|4-4-4-4-4-4-4-4-4-4-4-4-4-4-4-4-|--------------------------------|


[Verse]
 
G|--------------------------------|--------------------------------|
D|--------------------------------|--------------------------------|
A|3-3-3-3-3-3-3-3-3-3-3-3-3-3-3-3-|3-3-3-3-3-3-3-3-3-3-3-3-3-3-3-3-|
E|--------------------------------|--------------------------------|

G|--------------------------------|--------------------------------|
D|--------------------------------|--------------------------------|
A|3-3-3-3-3-3-3-3-3-3-3-3-3-3-3-3-|3-3-3-3-3-3-3-3-3-3-3-3-3-3-3-3-|
E|--------------------------------|--------------------------------|

G|--------------------------------|--------------------------------|
D|--------------------------------|--------------------------------|
A|--------------------------------|--------------------------------|
E|4-4-4-4-4-4-4-4-4-4-4-4-4-4-4-4-|4-4-4-4-4-4-4-4-4-4-4-4-4-4-4-4-|

G|--------------------------------|--------------------------------|
D|--------------------------------|--------------------------------|
A|-------------------------------/|6-6-6-6-6-6-6-6-6-6-6-6-6-6-6-6-|
E|4-4-4-4-4-4-4-4-4-4-4-4-4-4-4-4-|--------------------------------|

G|--------------------------------|--------------------------------|
D|--------------------------------|--------------------------------|
A|3-3-3-3-3-3-3-3-3-3-3-3-3-3-3-3-|3-3-3-3-3-3-3-3-3-3-3-3-3-3-3-3-|
E|--------------------------------|--------------------------------|

G|--------------------------------|--------------------------------|
D|--------------------------------|--------------------------------|
A|3-3-3-3-3-3-3-3-3-3-3-3-3-3-3-3-|3-3-3-3-3-3-3-3-3-3-3-3-3-3-3-3-|
E|--------------------------------|--------------------------------|

G|--------------------------------|--------------------------------|
D|--------------------------------|--------------------------------|
A|--------------------------------|--------------------------------|
E|4-4-4-4-4-4-4-4-4-4-4-4-4-4-4-4-|4-4-4-4-4-4-4-4-4-4-4-4-4-4-4-4-|

G|--------------------------------|--------------------------------|
D|--------------------------------|--------------------------------|
A|-------------------------------/|6-6-6-6-6-6-6-6-6-6-6-6-6-6-6-6-|
E|4-4-4-4-4-4-4-4-4-4-4-4-4-4-4-4-|--------------------------------|


[Chorus]

G|--------------------------------|--------------------------------|
D|--------------------------------|--------------------------------|
A|3-3-3-3-3-3-3-3-3-3-3-3-3-3-3-3-|3-3-3-3-3-3-3-3-3-3-3-3-3-3-3-3-|
E|--------------------------------|--------------------------------|

G|--------------------------------|--------------------------------|
D|--------------------------------|--------------------------------|
A|3-3-3-3-3-3-3-3-3-3-3-3-3-3-3-3-|3-3-3-3-3-3-3-3-3---------------|
E|--------------------------------|------------------6-6-6-6-6-6-6-|

G|--------------------------------|--------------------------------|
D|--------------------------------|--------------------------------|
A|--------------------------------|--------------------------------|
E|4-4-4-4-4-4-4-4-4-4-4-4-4-4-4-4-|4-4-4-4-4-4-4-4-4-4-4-4-4-4-4-4-|

G|--------------------------------|--------------------------------|
D|--------------------------------|--------------------------------|
A|-------------------------------/|6-6-6-6-6-6-6-6-6-6-6-6-6-6-6-6-|
E|4-4-4-4-4-4-4-4-4-4-4-4-4-4-4-4-|--------------------------------|


[Break]

G|--------------------------------|--------------------------------|
D|--------------------------------|--------------------------------|
A|--------------------------------|--------------------------------|
E|--------------------------------|--------------------------------|


[Verse]
 
G|--------------------------------|--------------------------------|
D|--------------------------------|--------------------------------|
A|3-3-3-3-3-3-3-3-3-3-3-3-3-3-3-3-|3-3-3-3-3-3-3-3-3-3-3-3-3-3-3-3-|
E|--------------------------------|--------------------------------|

G|--------------------------------|--------------------------------|
D|--------------------------------|--------------------------------|
A|3-3-3-3-3-3-3-3-3-3-3-3-3-3-3-3-|3-3-3-3-3-3-3-3-3-3-3-3-3-3-3-3-|
E|--------------------------------|--------------------------------|

G|--------------------------------|--------------------------------|
D|--------------------------------|--------------------------------|
A|--------------------------------|--------------------------------|
E|4-4-4-4-4-4-4-4-4-4-4-4-4-4-4-4-|4-4-4-4-4-4-4-4-4-4-4-4-4-4-4-4-|

G|--------------------------------|--------------------------------|
D|--------------------------------|--------------------------------|
A|-------------------------------/|6-6-6-6-6-6-6-6-6-6-6-6-6-6-6-6-|
E|4-4-4-4-4-4-4-4-4-4-4-4-4-4-4-4-|--------------------------------|

G|--------------------------------|--------------------------------|
D|--------------------------------|--------------------------------|
A|3-3-3-3-3-3-3-3-3-3-3-3-3-3-3-3-|3-3-3-3-3-3-3-3-3-3-3-3-3-3-3-3-|
E|--------------------------------|--------------------------------|

G|--------------------------------|--------------------------------|
D|--------------------------------|--------------------------------|
A|3-3-3-3-3-3-3-3-3-3-3-3-3-3-3-3-|3-3-3-3-3-3-3-3-3-3-3-3-3-3-3-3-|
E|--------------------------------|--------------------------------|

G|--------------------------------|--------------------------------|
D|--------------------------------|--------------------------------|
A|--------------------------------|--------------------------------|
E|4-4-4-4-4-4-4-4-4-4-4-4-4-4-4-4-|4-4-4-4-4-4-4-4-4-4-4-4-4-4-4-4-|

G|--------------------------------|--------------------------------|
D|--------------------------------|--------------------------------|
A|-------------------------------/|6-6-6-6-6-6-6-6-6-6-6-6-6-6-6-6-|
E|4-4-4-4-4-4-4-4-4-4-4-4-4-4-4-4-|--------------------------------|


[Chorus]

G|--------------------------------|--------------------------------|
D|--------------------------------|--------------------------------|
A|3-3-3-3-3-3-3-3-3-3-3-3-3-3-3-3-|3-3-3-3-3-3-3-3-3-3-3-3-3-3-3-3-|
E|--------------------------------|--------------------------------|

G|--------------------------------|--------------------------------|
D|--------------------------------|--------------------------------|
A|3-3-3-3-3-3-3-3-3-3-3-3-3-3-3-3-|3-3-3-3-3-3-3-3-3---------------|
E|--------------------------------|------------------6-6-6-6-6-6-6-|

G|--------------------------------|--------------------------------|
D|--------------------------------|--------------------------------|
A|--------------------------------|--------------------------------|
E|4-4-4-4-4-4-4-4-4-4-4-4-4-4-4-4-|4-4-4-4-4-4-4-4-4-4-4-4-4-4-4-4-|

G|--------------------------------|--------------------------------|
D|--------------------------------|--------------------------------|
A|-------------------------------/|6-6-6-6-6-6-6-6-6-6-6-6-6-6-6-6-|
E|4-4-4-4-4-4-4-4-4-4-4-4-4-4-4-4-|--------------------------------|


[Bridge]

G|--------------------------------|--------------------------------|
D|--------------------------------|--------------------------------|
A|3-3-3-3-3-3-3-3-3-3-3-3-3-3-3-3-|3-3-3-3-3-3-3-3-3-3-3-3-3-3-3-3-|
E|--------------------------------|--------------------------------|

G|--------------------------------|--------------------------------|
D|--------------------------------|--------------------------------|
A|3-3-3-3-3-3-3-3-3-3-3-3-3-3-3-3-|3-3-3-3-3-3-3-3-3---------------|
E|--------------------------------|------------------6-6-6-6-6-6-6-|

G|--------------------------------|--------------------------------|
D|--------------------------------|--------------------------------|
A|--------------------------------|--------------------------------|
E|4-4-4-4-4-4-4-4-4-4-4-4-4-4-4-4-|4-4-4-4-4-4-4-4-4-4-4-4-4-4-4-4-|

G|--------------------------------|--------------------------------|
D|--------------------------------|--------------------------------|
A|-------------------------------/|6-6-6-6-6-6-6-6-6-6-6-6-6-6-6-6-|
E|4-4-4-4-4-4-4-4-4-4-4-4-4-4-4-4-|--------------------------------|

G|--------------------------------|--------------------------------|
D|--------------------------------|--------------------------------|
A|3-3-3-3-3-3-3-3-3-3-3-3-3-3-3-3-|3-3-3-3-3-3-3-3-3-3-3-3-3-3-3-3-|
E|--------------------------------|--------------------------------|

G|--------------------------------|--------------------------------|
D|--------------------------------|--------------------------------|
A|3-3-3-3-3-3-3-3-3-3-3-3-3-3-3-3-|3-3-3-3-3-3-3-3-3---------------|
E|--------------------------------|------------------6-6-6-6-6-6-6-|

G|--------------------------------|--------------------------------|
D|--------------------------------|--------------------------------|
A|--------------------------------|--------------------------------|
E|4-4-4-4-4-4-4-4-4-4-4-4-4-4-4-4-|4-4-4-4-4-4-4-4-4-4-4-4-4-4-4-4-|

G|--------------------------------|--------------------------------|
D|--------------------------------|--------------------------------|
A|-------------------------------/|6-6-6-6-6-6-6-6-6-6-6-6-6-6-6-6-|
E|4-4-4-4-4-4-4-4-4-4-4-4-4-4-4-4-|--------------------------------|


[Chorus]

G|--------------------------------|--------------------------------|
D|--------------------------------|--------------------------------|
A|3-3-3-3-3-3-3-3-3-3-3-3-3-3-3-3-|3-3-3-3-3-3-3-3-3-3-3-3-3-3-3-3-|
E|--------------------------------|--------------------------------|

G|--------------------------------|--------------------------------|
D|--------------------------------|--------------------------------|
A|3-3-3-3-3-3-3-3-3-3-3-3-3-3-3-3-|3-3-3-3-3-3-3-3-3---------------|
E|--------------------------------|------------------6-6-6-6-6-6-6-|

G|--------------------------------|--------------------------------|
D|--------------------------------|--------------------------------|
A|--------------------------------|--------------------------------|
E|4-4-4-4-4-4-4-4-4-4-4-4-4-4-4-4-|4-4-4-4-4-4-4-4-4-4-4-4-4-4-4-4-|

G|--------------------------------|--------------------------------|
D|--------------------------------|--------------------------------|
A|-------------------------------/|6-6-6-6-6-6-6-6-6-6-6-6-6-6-6-6-|
E|4-4-4-4-4-4-4-4-4-4-4-4-4-4-4-4-|--------------------------------|



***********************************
| /   Slide up
***********************************
Suggest correction
Give kudos to tab author, rate the tab!
1 2 3 4 5
comments
print report bad tab
1 comment total.
0 reply
aidan.zpeel 781 Nov 08, 2016 04:53 PM

Only correction to be made is the intro starts on e| -4-----4----

guest
You may want to rate the tab now too:
select rating
Wanna post a correction for this tab? Suggest correction