Oops, an error
Loading. Please wait.

Youre Early Tab

by 2:54
19 views 1 this week
no commentswrite comment
1 2 3 4 5
3 more votes to show rating
add to favorites
launch autoscroll
font size
0
reset
how to read this tab
guitar tuner
Autoscroll
slow
fast
+/-
esc
set tempo
stop
Help us to improve Ultimate-Guitar.com Take our survey!
×
Author
Difficulty
About this tab version
Guitars with Bass part included. Was this info helpful? Yes No
 2:54
"You're Early"

Standard Tuning


[Intro]
  G1,2
e|----------------|----------------|----------------|----------------|
B|----------------|----------------|----------------|----------------|
G|----------------|----------------|----------------|----------------|
D|----------------|----------------|----------------|----------------|
A|----------------|----------------|----------------|----------------|
E|----------------|----------------|----------------|----------------|

  G1
e|--------------------------------|--------------------------------|
B|--------------------------------|--------------------------------|
G|0-0-0-0-0-0-0-0-0-0-0-0-0-0-0-0-|0-0-0-0-0-0-0-0-0-0-0-0-0-0-0-0-|
D|--------------------------------|--------------------------------| X4
A|--------------------------------|--------------------------------|
E|--------------------------------|--------------------------------|

  G1
e|--------------------------------|--------------------------------|
B|--------------------------------|--------------------------------|
G|0-0-0-0-0-0-0-0-0-0-0-0-0-0-0-0-|0-0-0-0-0-0-0-0-0-0-0-0-0-0-0-0-|
D|--------------------------------|--------------------------------|
A|--------------------------------|--------------------------------|
E|--------------------------------|--------------------------------| 
e|--------------------------------|--------------------------------|
 |G2                                                                 X4
e|--------------------------------|--------------------------------|
B|--------------------------------|--------------------------------|
G|------------3h5p3h5p3h5p3-------|------------3h5p3h5p3h5p3-------|
D|------------3h5p3h5p3h5p3-------|------------3h5p3h5p3h5p3-------|
A|--------------------------------|--------------------------------|
E|--------------------------------|--------------------------------|


[Verse]
  G2
e|--------------------------------|--------------------------------|
B|--------------------------------|--------------------------------|
G|0-----------0-----------0-------|0-----------0-----------0-------|
D|----5-----------5---------------|----5-----------5---------------| X8
A|------3-----------3---------3---|------3-----------3---------3---|
E|--------------------------------|--------------------------------|


[Chorus]
  G1
e|--------------------------------|--------------------------------|
B|--------------------------------|--------------------------------|
G|0-0-0-0-0-0-0-0-0-0-0-0-0-0-0-0-|0-0-0-0-0-0-0-0-0-0-0-0-0-0-0-0-|
D|--------------------------------|--------------------------------|
A|--------------------------------|--------------------------------|
E|--------------------------------|--------------------------------|
 |G2
e|--------------------------------|--------------------------------|
B|--------------------------------|--------------------------------|
G|5-5-5-5-5-5-5-5-5-5-5-5-5-5-5-5-|5-5-5-5-5-5-5-5-5-5-5-5-5-5-5-5-|
D|5-5-5-5-5-5-5-5-5-5-5-5-5-5-5-5-|5-5-5-5-5-5-5-5-5-5-5-5-5-5-5-5-|
A|3-3-3-3-3-3-3-3-3-3-3-3-3-3-3-3-|3-3-3-3-3-3-3-3-3-3-3-3-3-3-3-3-|
E|--------------------------------|--------------------------------|

                                                                     X2
e|--------------------------------|--------------------------------|
B|--------------------------------|----------------4-4-4-4/6-6-6-6-|
G|0-0-0-0-0-0-0-0-0-0-0-0-0-0-0-0-|0-0-0-0-0-0-0-0-x-x-x-x-x-x-x-x-|
D|--------------------------------|----------------x-x-x-x-x-x-x-x-|
A|--------------------------------|----------------6-6-6-6/8-8-8-8-|
E|--------------------------------|--------------------------------|
 |
e|--------------------------------|--------------------------------|
B|--------------------------------|--------------------------------|
G|5-5-5-5-5-5-5-5-5-5-5-5-5-5-5-5-|5-5-5-5-5-5-5-5-5-5-5-5-5-5-5-5-|
D|5-5-5-5-5-5-5-5-5-5-5-5-5-5-5-5-|5-5-5-5-5-5-5-5-5-5-5-5-5-5-5-5-|
A|3-3-3-3-3-3-3-3-3-3-3-3-3-3-3-3-|3-3-3-3-3-3-3-3-3-3-3-3-3-3-3-3-|
E|--------------------------------|--------------------------------|

[Break]
 G2
e|--------------------------------|--------------------------------|
B|--------------------------------|--------------------------------|
G|5-5-5-5-5-5-5-5-5-5-5-5-5-5-5-5-|5-5-5-5-5-5-5-5-5-5-5-5-5-5-5-5-|
D|5-5-5-5-5-5-5-5-5-5-5-5-5-5-5-5-|5-5-5-5-5-5-5-5-5-5-5-5-5-5-5-5-|
A|3-3-3-3-3-3-3-3-3-3-3-3-3-3-3-3-|3-3-3-3-3-3-3-3-3-3-3-3-3-3-3-3-|
E|--------------------------------|--------------------------------|


[Verse]
  G2
e|--------------------------------|--------------------------------|
B|--------------------------------|--------------------------------|
G|0-----------0-----------0-------|0-----------0-----------0-------|
D|----5-----------5---------------|----5-----------5---------------| X8
A|------3-----------3---------3---|------3-----------3---------3---|
E|--------------------------------|--------------------------------|
 
Bass plays Fig. 1 twice


[Chorus]
  G1
e|--------------------------------|--------------------------------|
B|--------------------------------|--------------------------------|
G|0-0-0-0-0-0-0-0-0-0-0-0-0-0-0-0-|0-0-0-0-0-0-0-0-0-0-0-0-0-0-0-0-|
D|--------------------------------|--------------------------------|
A|--------------------------------|--------------------------------|
E|--------------------------------|--------------------------------|
 |G2
e|--------------------------------|--------------------------------|
B|--------------------------------|--------------------------------|
G|5-5-5-5-5-5-5-5-5-5-5-5-5-5-5-5-|5-5-5-5-5-5-5-5-5-5-5-5-5-5-5-5-|
D|5-5-5-5-5-5-5-5-5-5-5-5-5-5-5-5-|5-5-5-5-5-5-5-5-5-5-5-5-5-5-5-5-|
A|3-3-3-3-3-3-3-3-3-3-3-3-3-3-3-3-|3-3-3-3-3-3-3-3-3-3-3-3-3-3-3-3-|
E|--------------------------------|--------------------------------|

                                                                     X2
e|--------------------------------|--------------------------------|
B|--------------------------------|----------------4-4-4-4/6-6-6-6-|
G|0-0-0-0-0-0-0-0-0-0-0-0-0-0-0-0-|0-0-0-0-0-0-0-0-x-x-x-x-x-x-x-x-|
D|--------------------------------|----------------x-x-x-x-x-x-x-x-|
A|--------------------------------|----------------6-6-6-6/8-8-8-8-|
E|--------------------------------|--------------------------------|
 |
e|--------------------------------|--------------------------------|
B|--------------------------------|--------------------------------|
G|5-5-5-5-5-5-5-5-5-5-5-5-5-5-5-5-|5-5-5-5-5-5-5-5-5-5-5-5-5-5-5-5-|
D|5-5-5-5-5-5-5-5-5-5-5-5-5-5-5-5-|5-5-5-5-5-5-5-5-5-5-5-5-5-5-5-5-|
A|3-3-3-3-3-3-3-3-3-3-3-3-3-3-3-3-|3-3-3-3-3-3-3-3-3-3-3-3-3-3-3-3-|
E|--------------------------------|--------------------------------|


[Bridge]
  G3
e|12N-----------------------------|12N-----------------------------|
B|--------------------------------|--------------------------------|
G|--------------------------------|--------------------------------|
D|--------------------------------|--------------------------------|
A|--------------------------------|--------------------------------|
E|--------------------------------|--------------------------------|
                                                                    X2
e|12N-----------------------------|12N---------------12gb13--------|
B|--------------------------------|--------------------------------|
G|--------------------------------|--------------------------------|
D|--------------------------------|--------------------------------|
A|--------------------------------|--------------------------------|
E|--------------------------------|--------------------------------|


 |G1
e|--------------------------------|--------------------------------|
B|--------------------------------|--------------------------------|
G|0-0-0-0-0-0-0-0-0-0-0-0-0-0-0-0-|0-0-0-0-0-0-0-0-0-0-0-0-0-0-0-0-|
D|--------------------------------|--------------------------------|
A|--------------------------------|--------------------------------|
E|--------------------------------|--------------------------------|
 |G2
e|--------------------------------|--------------------------------|
B|--------------------------------|--------------------------------|
G|------------3h5p3h5p3h5p3-------|------------3h5p3h5p3h5p3-------|
D|------------3h5p3h5p3h5p3-------|------------3h5p3h5p3h5p3-------|
A|--------------------------------|--------------------------------|
E|--------------------------------|--------------------------------|
 |G3
e|12N-----------------------------|12N-----------------------------|
B|--------------------------------|--------------------------------|
G|--------------------------------|--------------------------------|
D|--------------------------------|--------------------------------|
A|--------------------------------|--------------------------------|
E|--------------------------------|--------------------------------|

  G1                                                                 X2
e|--------------------------------|--------------------------------|
B|--------------------------------|--------------------------------|
G|0-0-0-0-0-0-0-0-0-0-0-0-0-0-0-0-|0-0-0-0-0-0-0-0-0-0-0-0-0-0-0-0-|
D|--------------------------------|--------------------------------|
A|--------------------------------|--------------------------------|
E|--------------------------------|--------------------------------|
 |G2
e|--------------------------------|--------------------------------|
B|--------------------------------|--------------------------------|
G|------------3h5p3h5p3h5p3-------|------------3h5p3h5p3h5p3-------|
D|------------3h5p3h5p3h5p3-------|------------3h5p3h5p3h5p3-------|
A|--------------------------------|--------------------------------|
E|--------------------------------|--------------------------------|
 |G3
e|12N-----------------------------|12N---------------12gb13--------|
B|--------------------------------|--------------------------------|
G|--------------------------------|--------------------------------|
D|--------------------------------|--------------------------------|
A|--------------------------------|--------------------------------|
E|--------------------------------|--------------------------------|


[Chorus]
  G1
e|--------------------------------|--------------------------------|
B|--------------------------------|--------------------------------|
G|0-0-0-0-0-0-0-0-0-0-0-0-0-0-0-0-|0-0-0-0-0-0-0-0-0-0-0-0-0-0-0-0-|
D|--------------------------------|--------------------------------|
A|--------------------------------|--------------------------------|
E|--------------------------------|--------------------------------|
 |G2
e|--------------------------------|--------------------------------|
B|--------------------------------|--------------------------------|
G|5-5-5-5-5-5-5-5-5-5-5-5-5-5-5-5-|5-5-5-5-5-5-5-5-5-5-5-5-5-5-5-5-|
D|5-5-5-5-5-5-5-5-5-5-5-5-5-5-5-5-|5-5-5-5-5-5-5-5-5-5-5-5-5-5-5-5-|
A|3-3-3-3-3-3-3-3-3-3-3-3-3-3-3-3-|3-3-3-3-3-3-3-3-3-3-3-3-3-3-3-3-|
E|--------------------------------|--------------------------------|

                                                                    X2
e|--------------------------------|--------------------------------|
B|--------------------------------|----------------4-4-4-4/6-6-6-6-|
G|0-0-0-0-0-0-0-0-0-0-0-0-0-0-0-0-|0-0-0-0-0-0-0-0-x-x-x-x-x-x-x-x-|
D|--------------------------------|----------------x-x-x-x-x-x-x-x-|
A|--------------------------------|----------------6-6-6-6/8-8-8-8-|
E|--------------------------------|--------------------------------|
 |
e|--------------------------------|--------------------------------|
B|--------------------------------|--------------------------------|
G|5-5-5-5-5-5-5-5-5-5-5-5-5-5-5-5-|5-5-5-5-5-5-5-5-5-5-5-5-5-5-5-5-|
D|5-5-5-5-5-5-5-5-5-5-5-5-5-5-5-5-|5-5-5-5-5-5-5-5-5-5-5-5-5-5-5-5-|
A|3-3-3-3-3-3-3-3-3-3-3-3-3-3-3-3-|3-3-3-3-3-3-3-3-3-3-3-3-3-3-3-3-|
E|--------------------------------|--------------------------------|



***********************************
| /   Slide up
| h   Hummer-on
| p   Pull-off
| x   Dead note
| N   Tremolo pick 16th notes
| gb  Gradual bend
| r   Bend release
***********************************
Suggest correction
Give kudos to tab author, rate the tab!
1 2 3 4 5
comments
print report bad tab
guest
You may want to rate the tab now too:
select rating
Wanna post a correction for this tab? Suggest correction