Oops, an error
Loading. Please wait.

Pimps intro tab

49 views 3 this week
9 commentsread comments
1 2 3 4 5
3 more votes to show rating
add to favorites
×
Save as Personal and add changes to this tab that will be seen only by you. Learn more ›
×
You can save this tab as Personal to edit and correct it or add notes. All changes will be seen only by you. Learn more »
launch autoscroll
font size
0
reset
how to read this tab
guitar tuner
edit
Autoscroll
slow
fast
+/-
esc
set tempo
stop
About this tab version
This Version is based off the Offical Video Version. Was this info helpful? Yes No
[Intro]
E|--------------------------------------|
B|--------------------------------------|
G|--20--19--18h19--16----------16-------|
D|---------------------18--18------18---|
A|--------------------------------------|
E|--------------------------------------|

E|-------------------------------------------------------------------------------|
B|--19---------------------------------------------------------------------------|
G|------20p18p16--20--16---------------------------------------------------------|
D|------------------------20b21r20--18---------18------------------------16--18--|
A|--------------------------------------17/18------16/18--16------16/18----------|
E|------------------------------------------------------------19-----------------|  

E|-------------------------------------------------------------------------------|
B|--19---------------------------------------------------------------------------|
G|------20p18p16--20--16---------------------------------------------------------|
D|------------------------20b21r20--18---------18------------------------16--18--|
A|--------------------------------------17/18------16/18--16------16/18----------|
E|------------------------------------------------------------19-----------------|   (Repeat til end)

**********************************

| / Slide up
| h Hammer on
| p Pull off
| b Bend
| r Release

***********************************

            
            
Suggest correction
Creating personal tab
Creating personal tab
You can edit any tab online and save it as your Personal.

You can edit, replace or remove any tab part or add personal notes – all changes will be seen only by you.

Personal tabs can be accessed anytime from any device, even offline.
Learn more »
Give kudos to tab author, rate the tab!
1 2 3 4 5
comments
print report bad tab
9 comments total. Showing first comments.
0 reply
matthew__11 10 Jun 20, 2017 08:29 AM

can you make a 2chainz "Saturday Night" tab

0 reply
matthew__11 10 Jun 20, 2017 09:54 AM

good lookin mane! i have a ton of rap requests for lead tabs but ill spare you for now

0 reply
matthew__11 10 Jun 20, 2017 10:51 AM

well YEEEE.. lot of ugk. 8ball and MJG. Trae Z-Ro... lots of guitars... ill put together a good list

guest
You may want to rate the tab now too:
select rating
Wanna post a correction for this tab? Suggest correction