Oops, an error
Loading. Please wait.

Como Caramelo De Limon Bass Tab

version 2
version 2

Whole song

Interactive

1,660 views 6 this week
no commentswrite comment
1 2 3 4 5
please rate
add to favorites
launch autoscroll
font size
0
reset
guitar tuner
Tab Pro tools
  • play this tab
  • loop segment
  • change instrument
  • show fretboard
  • metronome
×
Best way to learn
"Como Caramelo De Limon"
Autoscroll
slow
fast
+/-
esc
set tempo
stop
Contributor
Banda: Dos Minutos
Canción: Como Caramelo de Limón
Álbum: Valentín Alsina

h = hammer on
~ = deja que suene
° = toca un montón de veces
* = toca el doble de veces que lo que tocas en la de arriba

INTRO
G-----------------------------------------------|
D-----------------------------------------------|
A----3-----3----3-0-----0--0--------------------|
E-------3-----3------0-------3------------------|

G-----------------------------------------------|
D------------------------3h5-55-5---------------|
A-------0-3-----------5-------------------------|
E----1------1--0-1-3----------------------------|

G-----------------------------------------------|
D-----------------------------------------------|
A----3-----3----3-0-----0--0--------------------|
E-------3-----3------0-------3------------------|

G-----------------------------------------------|
D------------------------3h5-55-5---------------|
A-------0-3-----------5-------------------------|
E----1------1--0-1-3----------------------------|

G-----------------------------------------------|
D-------5-----5---------------------------------|
A----3-----3----3-0-----0--0--------------------|
E--------------------0-------3------------------|

G-----------------------------------------------|
D------------------------3h5-55-5---------------|
A-------0-3-----------5-------------------------|
E----1------1--0-1-3----------------------------|

G-----------------------------------------------|
D-----------------------------------------------|
A----3-----3----3-0-----0--0--------------------|
E-------3-----3------0-------3------------------|

G-----------------------------------------------|
D------------------------3h5-55-5---------------|
A-------0-3-----------5-----------3~------------|
E----1------1--0-1-3----------------------------|

COSA QUE VA DESPUÉS DEL INTRO PERO NO ES EL VERSO
G-----------------------------------------------|
D-----------------------------------------------|
A--------------3*-------------3*----------------|
E----1°---3°--------1°---3°---------------------|

G-----------------------------------------------|
D-----------------------------------------------|
A--------------3*-------------------------------|
E----1°---3°--------1°---3°---------------------|

VERSO
G-----------------------------------------------|
D-----------------------------------------------|
A----3*---0*--------------3*---0*---------------|
E--------------1*---3*--------------1*---3*-----|

CORO
G-----------------------------------------------|
D-----------------------------------------------|
A---------3*--------3*--------3*--------3*------|
E----1*--------3*--------1*--------3*-----------|

OUTRO
G-----------------------------------------------|
D-----------------------------------------------|
A---------3*--------3*--------3*--------3*------|
E----3*--------3*--------3*--------3*--------3~-|


INTRO X1
COSA X1
VERSO X1
CORO X1
COSA X1
VERSO X1
CORO X1
OUTRO X1
comments
We did not receive enough feedback on this tab! Please rate:
print report bad tab
1 2 3 4 5
I want to post or [tab]
guest
You may want to rate the tab now too:
select rating
Please do not post tabs as comments. Select "correction" instead!