Oops, an error
Loading. Please wait.

Meconverti En Un Marciano Bass Tab

520 views 1 this week
no commentswrite comment
1 2 3 4 5
3 more votes to show rating
add to favorites
launch autoscroll
font size
0
reset
guitar tuner
×
Best way to learn
"Meconverti En Un Marciano"
Autoscroll
slow
fast
+/-
esc
set tempo
stop
2 MINUTOS - ME CONVERTI EN UN MARCIANO


INTRO
1---------------
2---------------
3----------5----
4---7(*8)-----5-


VERSO
1---------------
2---------------
3---------5-----
4--7(*8)-----5--


CORO
1----------------------
2----------------------
3----------------5(*8)-
4--3(*8)---5(*8)-------


BRIDGE
1----------------
2----------------
3----------7(*8)-
4---7(*8)--------


PARA OPINIONES
MMGC182@HOTMAIL.COM
Suggest correction
Give kudos to tab author, rate the tab!
1 2 3 4 5
comments
print report bad tab
guest
You may want to rate the tab now too:
select rating
Wanna post a correction for this tab? Suggest correction