Oops, an error
Loading. Please wait.

Goodbye tab

version 1
version 1

Whole song

  • It is closer to the original song and has the brea... Show more
by 2NE1
1,042 views 18 this week
1 commentread comment
1 2 3 4 5
x 3
add to favorites
×
Save as Personal and add changes to this tab that will be seen only by you. Learn more ›
×
You can save this tab as Personal to edit and correct it or add notes. All changes will be seen only by you. Learn more »
launch autoscroll
font size
0
reset
how to read this tab
guitar tuner
edit
Autoscroll
slow
fast
+/-
esc
set tempo
stop
Author
Difficulty
About this tab version
It is closer to the original song and has the break down of the intro instead of just chords. Was this info helpful? Yes No
I've seen a couple of versions of this but this one is the closest to the original song so far.

It isn't an easy song (especially the intro) but definitely worth learning it :)

Good luck!

Intro + Verse 1

E |--4-6h7p6-----------6-9--|--6-6h7p6--------4-----4---|
A |--4-------9-7-------7-7--|--7-------7------6-6---4-4-|
D |--4---------------8------|--6---------8----6-----4---|   
G |--6-------------8--------|--8------------------------|
B |--6-----------6----------|---------------4-----4-----|
E |--4----------------------|---------------------------|

gaji ma
nal beorigo gagettaneun mareun haji ma
gieok sok nareul dugo tteonaji ma
neol jabeul su eomneun nae nuneul boji ma
geunyang gaji ma

sokji ma
gyeou ireon yuhoge neomeogaji ma
modeun ge yeongwonhajineun anchanha
gyeouri gamyeon bomeun dasi wa aljanha
geunyang gaji ma

Bridge

E |--4--|--6--|--2--|--4----|
A |--4--|--7--|--2--|--6----|
D |--4--|--8--|--3--|--6----| X2
G |--6--|--8--|--4--|--6----|
B |--6--|--6--|--4--|--4----|
E |--4--|--X--|--2--|--X----|

oneuri jinagamyeon naeireun dareul geotman gata
neo eopsi jal saragal su isseulkka

Chorus (same chords)

E |--4--|--6--|--2--|--4----|
A |--4--|--7--|--2--|--6----|
D |--4--|--8--|--3--|--6----| X4
G |--6--|--8--|--4--|--6----|
B |--6--|--6--|--4--|--4----|
E |--4--|--X--|--2--|--X----|

uri dasi mannaneun geunalkkaji
annyeong annyeong
uri dasi mannaneun meon geunalkkaji
annyeong annyeong

Does anyone know, does anyone know
How it makes me feel
uri dasi mannaneun geunalkkaji
annyeong annyeong

Oh annyeong annyeong

Verse 2

E |--4-6h7p6-----------6-9--|--6-6h7p6--------4-----4---|
A |--4-------9-7-------7-7--|--7-------7------6-6---4-4-|
D |--4---------------8------|--6---------8----6-----4---|   
G |--6-------------8--------|--8------------------------|
B |--6-----------6----------|---------------4-----4-----|
E |--4----------------------|---------------------------|

mitji maheuteojyeo buseojin maldeureun mitji ma
neoui jakgo jageun maeumeul lochi ma
hamkkehaetteon yaksokdeuri saenggangna
nunmuri heureunda

itji ma
gakkeum himi deuldeorado gwaenchanha
gidaego sipeul ttaeneun chajawa
na yeongwonhi hamkke isseojul suneun eopjiman
jamkkanijanha

Bridge

E |--4--|--6--|--2--|--4----|
A |--4--|--7--|--2--|--6----|
D |--4--|--8--|--3--|--6----| X2
G |--6--|--8--|--4--|--6----|
B |--6--|--6--|--4--|--4----|
E |--4--|--X--|--2--|--X----|

oneuri jinagamyeon naeireun dareul geotman gata
neo eopsi jal saragal su isseulkka

Chorus (same chords)

E |--4--|--6--|--2--|--4----|
A |--4--|--7--|--2--|--6----|
D |--4--|--8--|--3--|--6----| X8
G |--6--|--8--|--4--|--6----|
B |--6--|--6--|--4--|--4----|
E |--4--|--X--|--2--|--X----|

uri dasi mannaneun geunalkkaji
annyeong annyeong
uri dasi mannaneun meon geunalkkaji
annyeong annyeong

Does anyone know, does anyone know
How it makes me feel
uri dasi mannaneun geunalkkaji
annyeong annyeong

uri dasi mannaneun geunalkkaji
annyeong annyeong
uri dasi mannaneun meon geunalkkaji
annyeong annyeong

No annyeong annyeong



***********************************
| h   Hummer-on
| p   Pull-off
***********************************

            
            
Suggest correction
Creating personal tab
Creating personal tab
You can edit any tab online and save it as your Personal.

You can edit, replace or remove any tab part or add personal notes – all changes will be seen only by you.

Personal tabs can be accessed anytime from any device, even offline.
Learn more »
Give kudos to tab author, rate the tab!
1 2 3 4 5
comments
print report bad tab
1 comment total.
0 reply
mollymayaxford 10 Mar 11, 2017 04:01 AM

i find it easier to put a capo on 4th fret if you don't like bar chords :)))

guest
You may want to rate the tab now too:
select rating
Wanna post a correction for this tab? Suggest correction