Oops, an error
Loading. Please wait.

Unconditional Love Bass Tab

by 2Pac
50 views 6 this week
no commentswrite comment
1 2 3 4 5
3 more votes to show rating
add to favorites
launch autoscroll
font size
0
reset
guitar tuner
Autoscroll
slow
fast
+/-
esc
set tempo
stop
Help us to improve Ultimate-Guitar.com Take our survey!
×
Author
Difficulty
Tuning
novice
D A D G B E
About this tab version
2Pac - Unconditional love bass tab from request queue. EDIT: Added metadata to the track. Was this info helpful? Yes No
[Intro/Main Riff/Outro]

G|-----------------|-6~~-------------|
D|-----------------|-----------------|
A|-4~~~~~~~~~~~~---|---------4~~~~~~-|
D|---------------6-|-----6~~---------|

G|-----------------|-----------------|
D|-----------------|-3~~~~~~~~~~~~---|
A|-3~~~~~~~~~~~~~~-|-----------------|
D|-----------------|---------------3-|

G|-----------------|-----------------|
D|-----------------|-----------------|
A|-1~~~~~~~~~~~~---|-1~~-1~~---------|
D|---------------3-|---------6~~~~~~-|

G|-----------------|-----------------|
D|-----------------|-----------------|
A|-----------------|-----------------|
D|-4~~~~~~~~~~-3~~-|-1~~~~~~-6~~~~~~-|


[Verse]

G|-----------------|-8-6-6~~-5~~-----|  |
D|-----------------|-------------6~~-|  |
A|-4~~~~~~~~~~~~---|-----------------|  |
D|---------------6-|-----------------|  |
                                        |
G|-----------------|-----------------|  |
D|-----------------|-3~~~~~~~~~~~~---|  |
A|-3~~~~~~~~~~~~-3-|-----------------|  |
D|-----------------|---------------3-|  |
                                        |--×4
G|-----------------|---------6~~~~~~-|  |
D|-----------------|-----------------|  |
A|-1~~~~~~~~~~~~---|-1~~-------------|  |
D|---------------3-|-----3~~---------|  |
                                        |
G|-----------------|-----------------|  |
D|-4~~~~~~~~~~-3~~-|-1~~~~~~-6~~~~~~-|  |
A|-----------------|-----------------|  |
D|-----------------|-----------------|  |


[Chorus]

G|-----------------|---------------6-|  |
D|-----------------|-----6~~-8-6-6---|  |
A|-4~~~~~~~~~~-4~~-|-8~~-------------|  |
D|-----------------|-----------------|  |
                                        |
G|-----------------|-----------------|  |
D|-----------------|-3~~~~-3-------1-|  |
A|-3~~~~~~~~~~~~-3-|-----------------|  |
D|-----------------|---------1~~~~---|  |
                                        |--×2
G|-----------------|-----------------|  |
D|-----------------|-----------------|  |
A|-1~~~~~~~~~~~1~~-|-1~~-1~~---------|  |
D|-----------------|---------6~~~~~~-|  |
                                        |
G|-----------------|-----------------|  |
D|-----------------|-----------------|  |
A|-----------------|-----------------|  |
D|-4~~~~~~~~~~-3~~-|-1~~~~~~-6~~~~~~-|  |

The whole song is basically the main riff repeated throughout the whole song.
The riff sometimes changes a bit. It's mostly the second measure and the forth measure.
Here are a few examples on this.


[Verse Variation]

G|-----------------|-----------------|
D|-----------------|-----------------|
A|-4~~~~~~~~~~~~~~-|-4~~-4~~-----4~~-|
D|-----------------|---------6~~-----|

G|-----------------|-----------------|
D|-----------------|-3~~~~~~~~~~~~-3-|
A|-3~~~~~~~~~~~~-3-|-----------------|
D|-----------------|-----------------|

G|-----------------|-----------------|
D|-----------------|-----------------|
A|-1~~~~~~~~~~~~---|-1~~-1~~---------|
D|---------------3-|---------6~~~~~~-|

G|-----------------|-----------------|
D|-----------------|-----------------|
A|-----------------|-----------------|
D|-4~~~~~~~~~~-3~~-|-1~~~~~~-6~~~~~~-|


[Verse Variation 2]

G|-----------------|-----------------|
D|-----------------|-----6~~-8~~-6~~-|
A|-4~~~~~~~~~~-4~~-|-8~~-------------|
D|-----------------|-----------------|

G|-----------------|-----------------|
D|-----------------|-3~~~~~~~~~~~~-3-|
A|-3~~~~~~~~~~~~-3-|-----------------|
D|-----------------|-----------------|

G|-----------------|-----------------|
D|-----------------|-----------------|
A|-1~~~~~~~~~~~~---|-1~~-1~~---------|
D|---------------3-|---------6~~~~~~-|

G|-----------------|-----------------|
D|-----------------|-----------------|
A|-----------------|-----------------|
D|-4~~~~~~~~~~-3~~-|-1~~~~~~-6~~~~~~-|


************************************

| ~  Vibrato

************************************
Suggest correction
Give kudos to tab author, rate the tab!
1 2 3 4 5
comments
print report bad tab
guest
You may want to rate the tab now too:
select rating
Wanna post a correction for this tab? Suggest correction