Oops, an error
Loading. Please wait.

Better In Bed Than Ever As Friends bass

by 2Sweet
59 views 1 this week
no commentswrite comment
1 2 3 4 5
3 more votes to show rating
add to favorites
×
Save as Personal and add changes to this tab that will be seen only by you. Learn more ›
×
You can save this tab as Personal to edit and correct it or add notes. All changes will be seen only by you. Learn more »
launch autoscroll
font size
0
reset
guitar tuner
edit
Autoscroll
slow
fast
+/-
esc
set tempo
stop
http://www.myspace.com/2sweet

2*Sweet – Better In Bed Than Ever As Friends

Tuning: Drop D
Verse 1 (come right before the vocals)
[What he wont know...]
G|------------------|
D|------------------|	x6
A|---555-----222-00-|
D|-------55---------|

[Lets make some bad decisions tonight...]
G|----------------------------------|
D|----------------------------------|
A|----------------------------------|
D|---0~--------------0--0--0-0-0-0--|

Chorus [Tonight were making something...]
G|-------------------------------------------------------|
D|-------------------------------------------------------|
A|---2-2-2-------0-0-0-------2-2-2--------------1--1-1---|
D|---------0--00-------5--5-5--------0--00-5-5-5---------|

G|----------------------------------------------------|
D|----------------------------------------------------|
A|---2-2-2-------0-0-0--------------------------------|
D|---------0--00-------5--55--2-2-2-2--4--5-5-555555--|

[2nd time]
G|-------------------------------------------------------|
D|-------------------------------------------------------|
A|---2-2-2-------0-0-0-------2-2-2--------------1--1-1---|
D|---------0--00-------5--55--------0--00-5-5-5----------|

G|----------------------------------------------------|
D|----------------------------------------------------|
A|---2-2-2-------0-0-0--------------------------------|
D|---------0--00-------5--55--2-2-2-2--4--5-5-555555--|

[woahh]
G|----------------------|
D|----------------------|
A|----------------------|
D|---5-5-5-5--7--8-8~---|

Or, you can do the chorus just on low D, whichever is easier..

D(low)|---9-9-9-0--00-7-7-7-5--55--9-9-9-0--00-5--55-8-88-|

D(low)|---9-9-9-0--00-7-7-7-5--55--2-2-2-2--4--5-5---|

D(low)|---5-5-5-5--7--8-8~---|

Verse 2
[I tell you things so far from true...]
G|------------------|
D|------------------|	x2
A|---555-----222-00-|
D|-------55---------|

[cause I know its what you wan-]

come in with a pickup, open A, right here. when you hear all the other instruments come 
hit that note.. listen to it, youll get it

[-na hear]

[its nothing new to me or you..]
G|------------------|
D|------------------| x4
A|---555-----222-00-|
D|-------55---------|

[cause Im not looking for love between my sheets...]
G|------------------------------------------------------|
D|------------------------------------------------------|
A|---2-2-2-2-2-2-2-2------------------------------------|
D|-------------------5-5-5-5-5-5-5-5-0-0-0-0-0-0-0-0----|

[cause love is know...]
G|-------|
D|-------|
A|-------|
D|---0~--|

[just a checkmark...]
G|------------------------------------------------------|
D|------------------------------------------------------|
A|---2-2-2-2-2-2-2-2------------------------------------|
D|-------------------5-5-5-5-5-5-5-5-0-0-0-0-0-0-0-0----|

[(and I dont care, if you dont care!)] (you can barely hear those words. Just play that.)
G|-------------------|
D|-------------------|
A|-------------------|
D|---0~----------5~--|

Chorus [Tonight were making something...]
G|-------------------------------------------------------|
D|-------------------------------------------------------|
A|---2-2-2-------0-0-0-------2-2-2--------------1--1-1---|
D|---------0--00-------5--55--------0--00-5-5-5----------|

G|----------------------------------------------|
D|----------------------------------------------|
A|---2-2-2-------0-0-0--------------------------|
D|---------0--00-------5--55--2-2-2-2--4--5-5---|

[2nd time]
G|-------------------------------------------------------|
D|-------------------------------------------------------|
A|---2-2-2-------0-0-0-------2-2-2--------------1--11----|
D|---------0--00-------5--55--------0--00-5-5-5----------|

G|----------------------------------------------|
D|----------------------------------------------|
A|---2-2-2-------0-0-0--------------------------|
D|---------0--00-------5--55--2-2-2-2--4--5-5---|

[woahh]
G|----------------------|
D|----------------------|
A|----------------------|
D|---5-5-5-5--7--8-8~---|

Bridge
[mr. curtis...]
G|-------|
D|-------|
A|-------|
D|---0~--|

[so, lets marvin gaye..]
G|-----------------------------|
D|-----------------------------|
A|-----------------------------|
D|---0~-------2-2-2-2--4--5-5--|

[GO!]
G|--------------------------------------------------|
D|--------------------------------------------------|
A|--------------------------------------------------| x2
D|---0----0-0----0----0-0----5----5-5----5----5-5---|

[Every line is stolen...]
G|---------------------------------------|
D|---------------------------------------|
A|---------------------------------------|
D|---0000000000000000-0000000000000000---|

G|---------------------------------|
D|---------------------------------|
A|---------------------------------|
D|---5555555555555555-55555555-5~--|

Chorus
[only vocals and bass]
[Tonight, were making something...]
G|---------------------------------------------------------|
D|---------------------------------------------------------|
A|---2-2-2--------0-0-0--------2-2-2--------------1--1-1---|
D|---------0--0-0-------5--5-5-------0--0-0-5-5-5----------|

[LOVEE!]
G|------------------------------------------------|
D|------------------------------------------------|
A|---2-2-2--------0-0-0---------------------------|
D|---------0--0-0-------5--5-5--2-2-2-2--4--5-5---|

-break with guitar, then-

Chorus [Tonight were making something...]
G|-------------------------------------------------------|
D|-------------------------------------------------------|
A|---2-2-2-------0-0-0-------2-2-2--------------1--1-1---|
D|---------0--00-------5--55--------0--00-5-5-5----------|

G|-----------------------------------------------------|
D|-----------------------------------------------------|
A|---2-2-2-------0-0-0---------------------------------|
D|---------0--00-------5--55--2-2-2-2--4--5-5-555555---|

[2nd time]
G|------------------------------------------------------|
D|------------------------------------------------------|
A|---2-2-2-------0-0-0-------2-2-2--------------0--00---|
D|---------0--00-------5--55--------0--00-5-5-5---------|

G|----------------------------------------------------|
D|----------------------------------------------------|
A|---2-2-2-------0-0-0--------------------------------|
D|---------0--00-------5--55--2-2-2-2--4--5-5-555555--|

[woahh]
G|---------------------|
D|---------------------|
A|---------------------|
D|--5-5-5-5--7--8-8~---|

Outro
[Yeah! Yeah, yeah, yeah.. yeeah, yeeeauh.]

G|------------------|
D|------------------|	x2
A|---555-00--222-00-|
D|------------------|

            
            
Suggest correction
Creating personal tab
Creating personal tab
You can edit any tab online and save it as your Personal.

You can edit, replace or remove any tab part or add personal notes – all changes will be seen only by you.

Personal tabs can be accessed anytime from any device, even offline.
Learn more »
Give kudos to tab author, rate the tab!
1 2 3 4 5
comments
print report bad tab
guest
You may want to rate the tab now too:
select rating
Wanna post a correction for this tab? Suggest correction