Oops, an error
Loading. Please wait.

Bye Bye Yesterday bass

64 views 3 this week
no commentswrite comment
1 2 3 4 5
3 more votes to show rating
add to favorites
×
Save as Personal and add changes to this tab that will be seen only by you. Learn more ›
×
You can save this tab as Personal to edit and correct it or add notes. All changes will be seen only by you. Learn more »
launch autoscroll
font size
0
reset
guitar tuner
edit
Autoscroll
slow
fast
+/-
esc
set tempo
stop
[Intro]
G|------------------------|------------------------|------------------------|------------------------|
D|------------------------|------------------------|------------------------|------------------------|
A|1--1--1--1--1--1--1--1--|3--3--3--3--3--3--3--3--|5--5--5--5--5--5--5--5--|------------------------|
E|------------------------|------------------------|------------------------|3--3--3--3--3--3--3--3--|

G|------------------------|------------------------|-----------------------|---------------------------|
D|------------------------|------------------------|-----------------------|---------------------------|
A|------------------------|0--0--0--0--0--0--0--0--|5--5--5--5--5-5--5/12--|---------------8--7--------|
E|3--3--3--3--3--3--3--3--|------------------------|-----------------------|10--10--8--10--------10--10|

[Verse]
G|----------------------|------------------|---------------------|------------------|
D|----------------------|------------------|---------------------|------------------|
A|5--5--5--8---------5--|----5--8--5--8----|5--5--5--8--------5--|----5--8--5--8----|
E|--------------5-------|------------------|-------------5-------|------------------|

G|----------------------|------------------|----------------------|------------------|
D|-------------------5--|------------------|----------------------|------------------|
A|--------------5-------|----5--8--5-------|5--5--5--8---------5--|----5--8--5--8----|
E|3--3--3--6------------|-------------3----|--------------5-------|------------------|

G|----------------------|------------------|---------------------|------------------|
D|----------------------|------------------|---------------------|------------------|
A|5--5--5--8---------5--|----5--8--5--8----|5--5--5--8--------5--|----5--8--5--8----|
E|--------------5-------|------------------|-------------5-------|------------------|

G|----------------------|------------------|----------------------|------------------|
D|-------------------5--|------------------|----------------------|------------------|
A|--------------5-------|----5--8--5-------|5--5--5--8---------5--|----5--8--5--8----|
E|3--3--3--6------------|-------------3----|--------------5-------|------------------|

[Pre-Chorus]
G|----------------------|----------------------|----------------------|----------------------|
D|----------------------|----------------------|----------------------|----------------------|
A|8--8----8----8--8--8--|----------------------|5--5----5----5--5--5--|3--3----3----3--3--3--|
E|----------------------|5--5----5----5--3--5--|----------------------|----------------------|

G|----------------------|----------------------|------------------------|------------------------|
D|----------------------|----------------------|------------------------|------------------------|
A|----------------------|3--3----3----3--5--3--|5--5--5--5--4--4--4--4--|3--3--3--3--2--2--2--2--|
E|6--6----6----6--5--6--|----------------------|------------------------|------------------------|

G|----------------------|----------------------|----------------------|--------------------|
D|----------------------|----------------------|----------------------|--------------------|
A|----------------------|----------------------|5--5----5----5--5--5--|8--8----8----8--8--8|
E|6--6----6----6--5--6--|5--5----5----5--3--5--|----------------------|--------------------|

G|----------------------|----------------------|------------------------|---------------------|
D|----------------------|----------------------|------------------------|---------------------|
A|----------------------|3--3----3----3--3--3--|------------------------|---------------------|
E|6--6----6----6--6--6--|----------------------|3--3--3--3--3--3--3--3--|5--5--5--5--5--------|

[Chorus]

G|------------------------|------------------------|------------------------|------------------------|
D|------------------------|------------------------|------------------------|------------------------|
A|------------------------|------------------------|5--5--5--5--5--5--5--5--|3--3--3--3--3--3--3--3--|
E|6--6--6--6--6--6--6--6--|5--5--5--5--5--5--5--5--|------------------------|------------------------|

G|------------------------|------------------------|------------------------|------------------------|
D|------------------------|------------------------|------------------------|------------------------|
A|------------------------|------------3--3--3--3--|5--5--5--5--5--5--5--5--|3--3--3--3--3--3--3--3--|
E|6--6--6--6--6--6--5--6--|5--5--5--5--------------|------------------------|------------------------|

G|------------------------|------------------------|------------------------|------------------------|
D|------------------------|------------------------|------------------------|------------------------|
A|------------------------|3--3--3--3--3--3--3--3--|5--5--5--5--5--5--5--5--|------------------------|
E|6--6--6--6--6--6--6--6--|------------------------|------------------------|3--3--3--3--3--3--3--3--|

G|------------------------|------------------------|------------------------|------------------------|
D|------------------------|------------------------|------------------------|------------------------|
A|------------------------|------------------------|5--5--5--5--5--5--3/----|------------------------|
E|3--3--3--3--3--3--3--3--|5--5--5--5--5--5--5--5--|------------------------|10--10--10--10--10------|

[Intro]
G|------------------------|------------------------|------------------------|------------------------|
D|------------------------|------------------------|------------------------|------------------------|
A|1--1--1--1--1--1--1--1--|3--3--3--3--3--3--3--3--|5--5--5--5--5--5--5--5--|------------------------|
E|------------------------|------------------------|------------------------|3--3--3--3--3--3--3--3--|

G|------------------------|------------------------|-----------------------|---------------------------|
D|------------------------|------------------------|-----------------------|---------------------------|
A|------------------------|0--0--0--0--0--0--0--0--|5--5--5--5--5-5--5/12--|---------------8--7--------|
E|3--3--3--3--3--3--3--3--|------------------------|-----------------------|10--10--8--10--------10--10|

[Verse]
G|----------------------|------------------|---------------------|------------------|
D|----------------------|------------------|---------------------|------------------|
A|5--5--5--8---------5--|----5--8--5--8----|5--5--5--8--------5--|----5--8--5--8----|
E|--------------5-------|------------------|-------------5-------|------------------|

G|----------------------|------------------|----------------------|------------------|
D|-------------------5--|------------------|----------------------|------------------|
A|--------------5-------|----5--8--5-------|5--5--5--8---------5--|----5--8--5--8----|
E|3--3--3--6------------|-------------3----|--------------5-------|------------------|

G|----------------------|------------------|---------------------|------------------|
D|----------------------|------------------|---------------------|------------------|
A|5--5--5--8---------5--|----5--8--5--8----|5--5--5--8--------5--|----5--8--5--8----|
E|--------------5-------|------------------|-------------5-------|------------------|

G|----------------------|------------------|----------------------|------------------|
D|-------------------5--|------------------|----------------------|------------------|
A|--------------5-------|----5--8--5-------|5--5--5--8---------5--|----5--8--5--8----|
E|3--3--3--6------------|-------------3----|--------------5-------|------------------|

[Pre-Chorus]
G|----------------------|----------------------|----------------------|----------------------|
D|----------------------|----------------------|----------------------|----------------------|
A|8--8----8----8--8--8--|----------------------|5--5----5----5--5--5--|3--3----3----3--3--3--|
E|----------------------|5--5----5----5--3--5--|----------------------|----------------------|

G|----------------------|----------------------|------------------------|------------------------|
D|----------------------|----------------------|------------------------|------------------------|
A|----------------------|3--3----3----3--5--3--|5--5--5--5--4--4--4--4--|3--3--3--3--2--2--2--2--|
E|6--6----6----6--5--6--|----------------------|------------------------|------------------------|

G|----------------------|----------------------|----------------------|--------------------|
D|----------------------|----------------------|----------------------|--------------------|
A|----------------------|----------------------|5--5----5----5--5--5--|8--8----8----8--8--8|
E|6--6----6----6--5--6--|5--5----5----5--3--5--|----------------------|--------------------|

G|----------------------|----------------------|------------------------|---------------------|
D|----------------------|----------------------|------------------------|---------------------|
A|----------------------|3--3----3----3--3--3--|------------------------|---------------------|
E|6--6----6----6--6--6--|----------------------|3--3--3--3--3--3--3--3--|5--5--5--5--5--------|

[Chorus]
G|------------------------|------------------------|------------------------|------------------------|
D|------------------------|------------------------|------------------------|------------------------|
A|------------------------|------------------------|5--5--5--5--5--5--5--5--|3--3--3--3--3--3--3--3--|
E|6--6--6--6--6--6--6--6--|5--5--5--5--5--5--5--5--|------------------------|------------------------|

G|------------------------|------------------------|------------------------|------------------------|
D|------------------------|------------------------|------------------------|------------------------|
A|------------------------|------------3--3--3--3--|5--5--5--5--5--5--5--5--|3--3--3--3--3--3--3--3--|
E|6--6--6--6--6--6--5--6--|5--5--5--5--------------|------------------------|------------------------|

G|------------------------|------------------------|------------------------|------------------------|
D|------------------------|------------------------|------------------------|------------------------|
A|------------------------|3--3--3--3--3--3--3--3--|5--5--5--5--5--5--5--5--|------------------------|
E|6--6--6--6--6--6--6--6--|------------------------|------------------------|3--3--3--3--3--3--3--3--|

G|------------------------|------------------------|------------------------|------------------------|
D|------------------------|------------------------|------------------------|------------------------|
A|------------------------|------------------------|5--5--5--5--5--5--3/----|------------------------|
E|3--3--3--3--3--3--3--3--|5--5--5--5--5--5--5--5--|------------------------|10--10--10--10--10------|

[Instrumental]
G|----------------------|------------------|---------------------|------------------|
D|----------------------|------------------|---------------------|------------------|
A|5--5--5--8---------5--|----5--8--5--8----|5--5--5--8--------5--|----5--8--5--8----|
E|--------------5-------|------------------|-------------5-------|------------------|

G|----------------------|------------------|----------------------|------------------|
D|-------------------5--|------------------|----------------------|------------------|
A|--------------5-------|----5--8--5-------|5--5--5--8---------5--|----5--8--5--8----|
E|3--3--3--6------------|-------------3----|--------------5-------|------------------|

G|----------------------|------------------|---------------------|------------------|
D|----------------------|------------------|---------------------|------------------|
A|5--5--5--8---------5--|----5--8--5--8----|5--5--5--8--------5--|----5--8--5--8----|
E|--------------5-------|------------------|-------------5-------|------------------|

G|----------------------|------------------|----------------------|---------------------|
D|-------------------5--|------------------|----------------------|---------------------|
A|--------------5-------|----5--8--5-------|5--5--5--8---------5--|------------8--------|
E|3--3--3--6------------|-------------3----|--------------5-------|------8/10-----10\6--|

[Bridge]
G|----------------------|----------------------|----------------------|----------------------|
D|----------7-----8-----|----------------------|----------------------|----------------------|
A|-----5/7-----8--------|-------3--3--3--3--3--|5-------5-------------|-------3--3-----3-----|
E|6------------------8--|8\3-------------------|-----1-----1--3----3--|--5----------5-----5--|

G|--------------------|---------------------|---------------------|------------------------|
D|----------8-----8---|---------------------|---------------------|------------------------|
A|-----5/8-----8------|-------3--3-----3----|/5----5--5--5-----5--|7--7--7-----------0-----|
E|6----------------8--|8\3----------3-------|---------------5-----|---------8--8--8-----8--|

G|----------------------|----------------------|----------------------|------------------|
D|----------7-----7-----|----------------------|----------------------|------------------|
A|-----5/7-----8--------|-------3--3--3--3--3--|5-------5-------------|--5-------5----5--|
E|6------------------8--|8\3-------------------|-----1-----1--3----3--|-----3--3---3-----|

G|----------------------|---------------------|--------------|-----------------|
D|----------8-----8-----|---------------------|--------------|-----------------|
A|-----5/8-----8--------|-------3--3-----3----|--------------|-----------------|
E|6------------------8--|8/3----------3-------|5------5------|5----5----5------|

[Chorus]
G|------------------------|------------------------|------------------------|------------------------|
D|------------------------|------------------------|------------------------|------------------------|
A|------------------------|------------------------|5--5--5--5--5--5--5--5--|3--3--3--3--3--3--3--3--|
E|6--6--6--6--6--6--6--6--|5--5--5--5--5--5--5--5--|------------------------|------------------------|

G|------------------------|------------------------|------------------------|------------------------|
D|------------------------|------------------------|------------------------|------------------------|
A|------------------------|------------3--3--3--3--|5--5--5--5--5--5--5--5--|3--3--3--3--3--3--3--3--|
E|6--6--6--6--6--6--5--6--|5--5--5--5--------------|------------------------|------------------------|

G|------------------------|------------------------|------------------------|------------------------|
D|------------------------|------------------------|------------------------|------------------------|
A|------------------------|3--3--3--3--3--3--3--3--|5--5--5--5--5--5--5--5--|------------------------|
E|6--6--6--6--6--6--6--6--|------------------------|------------------------|3--3--3--3--3--3--3--3--|

G|------------------------|------------------------|------------------------|------------------------|
D|------------------------|------------------------|------------------------|------------------------|
A|------------------------|------------------------|5--5--5--5--5--5--3/----|------------------------|
E|3--3--3--3--3--3--3--3--|5--5--5--5--5--5--5--5--|------------------------|10--10--10--10--10------|

[Chorus]
G|------------------------|------------------------|------------------------|------------------------|
D|------------------------|------------------------|------------------------|------------------------|
A|------------------------|------------------------|5--5--5--5--5--5--5--5--|3--3--3--3--3--3--3--3--|
E|6--6--6--6--6--6--6--6--|5--5--5--5--5--5--5--5--|------------------------|------------------------|

G|------------------------|------------------------|------------------------|------------------------|
D|------------------------|------------------------|------------------------|------------------------|
A|------------------------|------------3--3--3--3--|5--5--5--5--4--4--4--4--|3--3--3--3--2--2--2--2--|
E|6--6--6--6--6--6--6--6--|5--5--5--5--------------|------------------------|------------------------|

G|------------------------|------------------------|------------------------|------------------------|
D|------------------------|------------------------|------------------------|------------------------|
A|------------------------|3--3--3--3--3--3--3--3--|5--5--5--5--5--5--5--5--|------------------------|
E|1--1--1--1--1--1--1--1--|------------------------|------------------------|3--3--3--3--3--3--3--1--|

G|------------------------|------------------------|------------------------|--------------------------------|
D|------------------------|------------------------|------------------------|--------------------------------|
A|------------------------|------------4--4--4--4--|5--5--5--5--5--5--5/----|--------------------------------|
E|3--3--3--3--3--3--3--3--|5--5--5--5--------------|------------------------|10--10--10--10--10--10--10--10/-|

[Outro]
G|------------------------|------------------------|---------------------------|--------------------------|
D|------------------------|------------------------|---------------------------|--------------------------|
A|1--1--1--1--1--1--1--1--|3--3--3--3--3--3--3--3--|5--5--5--5--5--5--5--5--5--|--3--3--3--3--3--3--3--1--|
E|------------------------|------------------------|---------------------------|--------------------------|

G|------------------------|------------------------|-------------------------|-------------------------------|
D|------------------------|------------------------|-------------------------|-------------------------------|
A|------------------------|0--0--0--0--0--0--0--0--|5--5--5--5--5--5--5------|-------------------------------|
E|3--3--3--3--3--3--3--3--|------------------------|---------------------3/--|10--10--10--10--10--10--10--10/|
 

************************************

| h   Hammer-on
| p   Pull-off
| /   Slide up
| \   Slide down

************************************
Suggest correction
Creating personal tab
Creating personal tab
You can edit any tab online and save it as your Personal.

You can edit, replace or remove any tab part or add personal notes – all changes will be seen only by you.

Personal tabs can be accessed anytime from any device, even offline.
Learn more »
Give kudos to tab author, rate the tab!
1 2 3 4 5
comments
print report bad tab
guest
You may want to rate the tab now too:
select rating
Wanna post a correction for this tab? Suggest correction