Oops, an error
Loading. Please wait.

The End Is Begun Tab

version 1
version 1

Whole song

Interactive

by 3
302 views 9 this week
3 commentsread comments
1 2 3 4 5
please rate
add to favorites
launch autoscroll
font size
0
reset
how to read this tab
guitar tuner
Autoscroll
slow
fast
+/-
esc
set tempo
stop
Help us to improve Ultimate-Guitar.com Take our survey!
×
Author
Difficulty
Tuning
intermediate
E B E G# B E
                               The End Is Begun                                 


                                                                               3
Josh Eppard


First Guitar
      PM         PM    PM                     PM         PM             PM     
      E  T T T T E  E  E  T T T T T T S E     E  T T T T E  E  T T S E  E  E   
E ||---------------------------------------|----------------------------------|
B ||---------------------------------------|----------------------------------|
G#||---------------------------------------|----------------------------------|
E ||---------------------------------------|----------------------------------|
B ||-----7-7-7-7-8--5-----3-3-3-3-5-5-5-1--|-----0-0-0-0-1--0--3-3-3-1--5--3--|
E ||--0----------------0-------------------|--0-------------------------------|

Second Guitar 
/              Q    Q    Q     E    E     W                 
E ||-------|--------------------------|-------------------|
B ||-------|--------------------------|-------------------|
G#||-------|-----------------10s--11--|-------------------|
E ||-------|--------------------------|--0----------------|
B ||-------|------------------7s---8--|--0----------------|
E ||-------|--------------------------|--0----------------|


  H          E   E  E  E   
--------------------------|
--------------------------|
--------------------------|
--L--------<>5b--L--L--L--|
--L-----------------------|
--L-----------------------|   /

First Guitar

  PM         PM    PM                     PM         PM              
  E  T T T T E  E  E  T T T T T T S E     E  T T T T E  E  H         
---------------------------------------|----------------------------|
---------------------------------------|----------------------------|
---------------------------------------|----------------------------|
---------------------------------------|----------------------------|
-----7-7-7-7-8--5-----3-3-3-3-5-5-5-1--|-----0-0-0-0-1--0-----------|
--0----------------0-------------------|--0-------------------------|


  PM PM PM PM PM PM    PM PM PM PM PM PM PM PM PM     
  E  T  T  T  T  E  E  E  T  T  T  T  T  T  T  T  E   
-----------------------------------------------------|
-----------------------------------------------------|
-----------------------------------------------------|
-----------------------------------------------------|
-----7--7--7--7--8--5-----3--3--3--3--5--5--3--3--1--|
--0--------------------0-----------------------------|


  PM PM PM PM PM PM    PM PM PM PM PM     
  E  T  T  T  T  E  E  T  T  S  E  E  E   
-----------------------------------------|
-----------------------------------------|
-----------------------------------------|
-----------------------------------------|
-----0--0--0--0--1--0--3--3--3--1--5--3--|
--0--------------3--2--5--5--5--3--7--5--|


  PM PM PM PM PM PM    PM PM PM PM PM PM PM PM PM     
  E  T  T  T  T  E  E  E  T  T  T  T  T  T  T  T  E   
-----------------------------------------------------|
-----------------------------------------------------|
-----------------------------------------------------|
-----------------------------------------------------|
-----7--7--7--7--8--5-----3--3--3--3--5--5--3--3--1--|
--0--------------------0-----------------------------|


  PM PM PM PM PM PM    PM PM PM PM PM     
  E  T  T  T  T  E  E  T  T  S  E  E  E   
-----------------------------------------|
-----------------------------------------|
-----------------------------------------|
-----------------------------------------|
-----0--0--0--0--1--0--3--3--3--1--5--3--|
--0--------------3--2--5--5--5--3--7--5--|


  PM PM PM PM PM PM    PM PM PM PM PM PM PM PM PM     
  E  T  T  T  T  E  E  E  T  T  T  T  T  T  T  T  E   
-----------------------------------------------------|
-----------------------------------------------------|
-----------------------------------------------------|
-----------------------------------------------------|
-----7--7--7--7--8--5-----3--3--3--3--5--5--3--3--1--|
--0--------------------0-----------------------------|


  PM PM PM PM PM PM    PM PM PM PM PM     
  E  T  T  T  T  E  E  T  T  S  E  E  E   
-----------------------------------------|
-----------------------------------------|
-----------------------------------------|
-----------------------------------------|
-----0--0--0--0--1--0--3--3--3--1--5--3--|
--0--------------3--2--5--5--5--3--7--5--|


  PM PM PM PM PM PM    PM PM PM PM PM PM PM PM PM     
  E  T  T  T  T  E  E  E  T  T  T  T  T  T  T  T  E   
-----------------------------------------------------|
-----------------------------------------------------|
-----------------------------------------------------|
-----------------------------------------------------|
-----7--7--7--7--8--5-----3--3--3--3--5--5--3--3--1--|
--0--------------------0-----------------------------|


  PM PM PM PM PM PM                                      
  E  T  T  T  T  E  E  T T T T T T T T T T T T T T T T   
-------------------------------------------------------||
-------------------------------------------------------||
-------------------------------------------------------||
---------------------------------------4-4-4-4-5-5-5-5-||
-----0--0--0--0--1--0--5-5-5-5-6-6-6-6-----------------||
--0--------------3--2----------------------------------||




Duration Legend
---------------
W - whole
H - half
Q - quarter
E - 8th
S - 16th
T - 32nd
X - 64th
. - note dotted
|-n-|  - n-tuplets


Tablature Legend
----------------
L - tied note
x - dead note
g - grace note
(n) - ghost note
> - accentuded note
NH - natural harmonic
AH - artificial harmonic
TH - tapped harmonic
SH - semi harmonic
PH - pitch harmonic
h - hammer on
p - pull off
b - bend
br - bendRelease
pb - preBend
pbr - preBendRelease
brb - bendReleaseBend
\n/ - tremolo bar dip
\n - tremolo bar dive
-/n - tremolo bar Release up
/n\ - tremolo bar inverted dip
/n - tremolo bar return
-\n - tremolo bar Release down
S - shift slide
s - legato slide
/ -  slide into from below or out of upwards
\ -  slide into from above or out of downwards
~ - vibrato
W - wide vibrato
tr - trill
TP - tremolo picking
T - tapping
S - slap
P - pop
< - fade in
^ - brush up
v - brush down
Suggest correction
What's this?
You can suggest a correction to this tab. Community and Mods will review your correction and vote to approve or reject it.
comments
We did not receive enough feedback on this tab! Please rate:
print report bad tab
1 2 3 4 5
3 comments total.
0 reply
Zao_89 3,390 wrote on May 26 2014, 07:15 pm

Exact same notation as my Guitar Pro tab, even ends at the same point as mine... Not suspicious at all.

0 reply
Aikoj 554 wrote on June 6 2014, 03:23 pm

Yeah, just exported it so people who don't have guitar pro could see it, people were commenting asking for that.

0 reply
MyOwnDisaster1 20 wrote on October 23 2014, 03:14 pm

Also, first guitar line is Joey Eppard not Josh Eppard. Josh is his brother.

guest
You may want to rate the tab now too:
select rating
Please do not post tabs as comments. Select "correction" instead!