Oops, an error
Loading. Please wait.

A Beautiful Lie Bass Tab

version 1
version 1

Whole song

8,947 views 6 this week
2 commentsread comments
1 2 3 4 5
x 4
add to favorites
launch autoscroll
font size
0
reset
guitar tuner
Autoscroll
slow
fast
+/-
esc
set tempo
stop
Help us to improve Ultimate-Guitar.com Take our survey!
×
Author
Difficulty
Artist: 30 Seconds To Mars
Bassist: Matt Wachter
Song: A Beautiful Lie
Album: A Beautiful Lie
Tabbed By: Lewis [lewis_mason21@hotmail.com]

This tab's pretty easy, just very long-winded note-wise!

[Tuning: Standard - E,A,D,G]

Intro: [Note: Rest during the piano]
G|---------------------------------------------------------------------|
D|---------------------------------------------------------------------|
A|---------------------------------------------------------------------|
E|-5555555555555555-5555555555555555-1111111111111111-1111111111111111-|

G|-------------------------------------------------------------------|
D|-------------------------------------------------------------------|
A|-------------------------------------------------------------------|
E|-10101010101010101010101010101010-10101010101010101010101010101010-|

G|-------------------------------------------------------------------|
D|-------------------------------------------------------------------|
A|-------------------------------------------------------------------|
E|-12121212121212121212121212121212-12121212121212121212121212121212-|

Verse One: [Note: Same as intro, 1's, not 11's]
("Lie awake in bed at night" ... "Cause this is just a game")
G|---------------------------------------------------------------------|
D|---------------------------------------------------------------------|
A|---------------------------------------------------------------------|
E|-5555555555555555-5555555555555555-1111111111111111-1111111111111111-|

G|-------------------------------------------------------------------|
D|-------------------------------------------------------------------|
A|-------------------------------------------------------------------|
E|-10101010101010101010101010101010-10101010101010101010101010101010-|

G|-------------------------------------------------------------------|
D|-------------------------------------------------------------------|
A|-------------------------------------------------------------------|
E|-12121212121212121212121212121212-12121212121212121212121212121212-|

Chorus:
("It's a beautiful lie" ... "So beautiful, beautiful it makes me")
G|--------------------------------------------------------------------|
D|--------------------------------------------------------------------|
A|--------------------------------------------------------------------|
E|-5555555555555555-5555555555555555-13131313131313131313131313131313-|

G|-------------------------------------------------------------------|
D|-------------------------------------------------------------------|
A|-------------------------------------------------------------------|
E|-13131313131313131313131313131313-10101010101010101010101010101010-|

G|--------------------------------------------------------------------|
D|--------------------------------------------------------------------|
A|--------------------------------------------------------------------|
E|-10101010101010101010101010101010-7777777777777777-7777777777777777-|

Verse Two:
("It's time to forget about the past" ... "Cause this is just a game")
G|---------------------------------------------------------------------|
D|---------------------------------------------------------------------|
A|---------------------------------------------------------------------|
E|-5555555555555555-5555555555555555-1111111111111111-1111111111111111-|

G|-------------------------------------------------------------------|
D|-------------------------------------------------------------------|
A|-------------------------------------------------------------------|
E|-10101010101010101010101010101010-10101010101010101010101010101010-|

G|-------------------------------------------------------------------|
D|-------------------------------------------------------------------|
A|-------------------------------------------------------------------|
E|-12121212121212121212121212121212-12121212121212121212121212121212-|

Chorus:
("It's a beautiful lie" ... "So beautiful, beautiful it makes me")
G|--------------------------------------------------------------------|
D|--------------------------------------------------------------------|
A|--------------------------------------------------------------------|
E|-5555555555555555-5555555555555555-13131313131313131313131313131313-|

G|-------------------------------------------------------------------|
D|-------------------------------------------------------------------|
A|-------------------------------------------------------------------|
E|-13131313131313131313131313131313-10101010101010101010101010101010-|

G|--------------------------------------------------------------------|
D|--------------------------------------------------------------------|
A|--------------------------------------------------------------------|
E|-10101010101010101010101010101010-7777777777777777-7777777777777777-|

Interlude:
G|--------REST--------|
D|--------REST--------|
A|--------REST--------|
E|--------REST--------|

Verse Three:
("Everyone's looking at me" ... "This is just a game")
G|---------------------------------------------------------------------|
D|---------------------------------------------------------------------|
A|---------------------------------------------------------------------|
E|-5555555555555555-5555555555555555-1111111111111111-1111111111111111-|

G|-------------------------------------------------------------------|
D|-------------------------------------------------------------------|
A|-------------------------------------------------------------------|
E|-10101010101010101010101010101010-10101010101010101010101010101010-|

G|-------------------------------------------------------------------|
D|-------------------------------------------------------------------|
A|-------------------------------------------------------------------|
E|-12121212121212121212121212121212-12121212121212121212121212121212-|

Chorus:
("It's a beautiful lie" ... "So beautiful, beautiful it makes me")
G|--------------------------------------------------------------------|
D|--------------------------------------------------------------------|
A|--------------------------------------------------------------------|
E|-5555555555555555-5555555555555555-13131313131313131313131313131313-|

G|-------------------------------------------------------------------|
D|-------------------------------------------------------------------|
A|-------------------------------------------------------------------|
E|-13131313131313131313131313131313-10101010101010101010101010101010-|

G|--------------------------------------------------------------------|
D|--------------------------------------------------------------------|
A|--------------------------------------------------------------------|
E|-10101010101010101010101010101010-7777777777777777-7777777777777777-|
Suggest correction
comments
print report bad tab
2 comments total.
0 reply
ZivonHunter 34 Jul 15, 2007 12:55 AM

Verse 1, 2, and 3 are incorrect. They should be more along the lines of this:

S S S S S S S S S S S S Q S S S S S S S S S S S S S S S S
-------------------------------|-----------------------------------|
-------------------------------|-----------------------------------|
--0-0-0-0-0---0-0-0-0-0--------|--0-0-0-0-0---0-0-0-0-0-------3S-5-|
-------------------------------|-----------------------------------|

S S S S S S S S S S Q. S S S S S S S S S S Q S S
-----------------------------|--------------------------------|
-----------------------------|--------------------------------|
--8-8-8-8-8---8-8-8-0--------|--8-8-8-8-8---8-8-8-0------0S-3-|
-----------------------------|--------------------------------|

S S S S S S S S S S Q. S S S S S S S S S E S S S S S
-----------------------------|----------------------------------|
-----------------------------|----------------------------------|
--5-5-5-5-5---5-5-5-5--------|--5-5-5-5-5---5-5-5-5--------0S-3-|
-----------------------------|----------------------------------|

S S Q S S Q S S S S S S Q S S Q S S S S
----------------------------|----------------------------|
----------------------------|----------------------------|
--7-7------7-7------7-7-----|--7-7------5-5------3-3-----|
----------------------------|----------------------------|

0 reply
xunknownx 131 Nov 07, 2007 10:00 AM

yah. i agree with zivon hunter. there should be more details too. the bass is not really continous. there are some breaks to give it that extra punch to the song. nice try though

guest
You may want to rate the tab now too:
select rating
Wanna post a correction for this tab? Suggest correction