Oops, an error
Loading. Please wait.

A Beautiful Lie Tab

version 2
version 2
112,722 views 42 this week
17 commentsread comments
1 2 3 4 5
x 51
add to favorites
launch autoscroll
font size
0
reset
how to read this tab
guitar tuner
Autoscroll
slow
fast
+/-
esc
set tempo
stop
Help us to improve Ultimate-Guitar.com Take our survey!
×
Author
[Intro]
(Piano Harmonic tabbed for guitar)
e|-----------------------------------------------------|  (USE either the 10 
B|------13----12------8-----------13------12-------8---|  or the 14, person-
G|----------------or-12------------------------or-12---|  ally,I think using
D|-----------------------------------------------------|  the 14 lets the 
A|-----------------------------------------------------|  notes have more 
E|-----------------------------------------------------|  ring like a piano.)

(Strum these power chords with the song. You'll figure it out, easy)
e|--------------------------------| 
B|--------------------------------| 
G|--9------5------7---------------|              (Imagine breaking the (32)
D|--9-(x32)5-(x32)7-(x32)14-------|               strums in to four SETS of
A|--7------3------5------14-(x32)-|               eight...The first strum of
E|-----------------------12-------|               each SET is always hardest)

                                                                       
Lie awake in bed at night and think about your life                    
Do you want to be different(different)                                 
Try to let go of the truth , the battles of your youth                 
'Cause this is just a game,                                            
                                                                       
e|-------------------------------|                
B|-------------------------------| 
G|--9------5------7--------------| 
D|--9-(x32)5-(x32)7-(x32)-14(x32)|                                     
A|--7------3------5-------14-----|            
E|------------------------12-----|                     
                                                                       
e|------------------------------------------------------------| 
B|------------------------------------------------------------| 
G|------------------------------------------------------------|      
D|-10(x32)--9(x32)-10(x31)-9(x1)------------------------------|            
A|----------------------------------12(x8)-14(x8)-15(x16)-----|             
E|------------------------------------------------------------|          

It's time to forget about the past(the past)
To wash away what happened last(what happened last x2)
Hide behind an empty face(empty face)
Don't have to much to say
'Cause this is just a game,

e|-------------------------------| 
B|-------------------------------| 
G|--9------5------7--------------|      
D|--9-(x32)5-(x32)7-(x32)-14(x32)|                                        
A|--7------3------5-------12-----|            
E|------------------------12-----| 

Everyone's lookin at me....
I'm running 'round in circles,  baby
A quiet desperation's building higher
I've got to rememver this is just a game

e|------------------------------|
B|------------------------------|
G|--9------5------7------9------| 
D|--9-(x32)5-(x32)7-(x32)9-(32)-|                                         
A|--7------3------5------7------|            
E|------------------------------|

[End Chorus]
e|-------------------------------|
B|-------------------------------| 
G|--9------5------7------9-------|       
D|--9-(x32)5-(x32)7-(x32)9-(32)--|                                        
A|--7------3------5------7-------|             
E|-------------------------------|


************************************

| (n)  Ghost note

************************************
Suggest correction
comments
print report bad tab
17 comments total. Showing first comments.
0 reply
swing life away 74 Jul 17, 2007 02:04 PM

good tab man

-1 reply
gothchickrulez 30 Apr 02, 2008 08:10 PM

well it is a good tab except one thing really soft in the background in the first verse or throughout the whole song and you can here it around 00:35-45 seconds in the well here it goes

e:-------------------
B:-------------------
G:-------------------
D:-------------------
A:--12-14-15--12-----
E:-------------------
2X

e:---------------
B:---------------
G:---------------
D:---------------
A:--12-14-15-----
E:---------------
10X

if it comes out wierd sorry i really don't know how to make corrections.

0 reply
gothchickrulez 30 Apr 02, 2008 08:14 PM

everything you have on your tab is correct it just becauser you left out the firt verse but did the second verse.

guest
You may want to rate the tab now too:
select rating
Wanna post a correction for this tab? Suggest correction