Oops, an error
Loading. Please wait.

A Beautiful Lie Tab

version 2
version 2
111,069 views 63 this week
17 commentsread comments
1 2 3 4 5
excellent!
x 46
add to favorites
launch autoscroll
font size
0
reset
how to read this tab
guitar tuner
Autoscroll
slow
fast
+/-
esc
set tempo
stop
Help us to improve Ultimate-Guitar.com Take our survey!
×
Contributor
                 A BEAUTIFUL LIE - 30 SECONDS TO MARS
----------------------------------------------------------------------------
Tabbed by:Gano "Jimmesey" Perez Jr.( tab number 4 or 5)
Email:?'s and comments to gano22perez@yahoo.com, any criticism evaluated!
            or at www.myspace/gano22perez.com
Tabbed again for my wife and kid....We went to the 30STM show in OKC,
Ok 5/25/06...Jared Leto and the band signed Pics & cd covers after the show..

Tuning=Standard on my acoustic...       (P.S the 7-9-9 and 12-14-14 PWR
                                           chords can be used vice versa
                                            or however you feel better off
                                               playing it!!THX=thanks)
INTRO:Piano Harmonic tabbed for guitar
e|-----------------------------------------------------|  USE either the 10 
B|------13----12------8-----------13------12-------8---|  or the 14, person-
G|----------------or-12------------------------or-12---|  ally,I think using
D|-----------------------------------------------------|  the 14 lets the 
A|-----------------------------------------------------|  notes have more 
E|-----------------------------------------------------|  ring like a piano.

Strum these power chords with the song....You'll figure it out, easy!
e|--------------------------------| 
B|--------------------------------| 
G|--9------5------7---------------|            <--Imagine breaking the (32)
D|--9-(x32)5-(x32)7-(x32)14-------|               strums in to four SETS of
A|--7------3------5------14-(x32)-|               eight...The first strum of
E|-----------------------12-------|               each SET is always hardest

Lyrics: (you can play the Plucks below with this verse)----------------v
                                                                       v
Lie awake in bed at night and think about your life                    v
Do you want to be different(different)                                 v
Try to let go of the truth , the battles of your youth                 v
'Cause this is just a game,                                            v
                                                                       v
e|-------------------------------| IT'S A BEAUTIFUL LIE                v 
B|-------------------------------| IT'S A PERFECT DENIAL               v
G|--9------5------7--------------| SUCH A BEAUTIFUL LIE TO BELIEVE IN  v    
D|--9-(x32)5-(x32)7-(x32)-14(x32)|                                     v   
A|--7------3------5-------14-----| SO BEAUTIFUL, BEAUTIFUL             v 
E|------------------------12-----| THAT MAKES ME                       v
                                                                       v
(Plucks that ring through)kinda iffy? Pipe effect pedal  <<<<<<<<<<<<<<<
e|------------------------------------------------------------| 
B|------------------------------------------------------------| 
G|------------------------------------------------------------|      
D|-10(x32)--9(x32)-10(x31)-9(x1)------------------------------|            
A|----------------------------------12(x8)-14(x8)-15(x16)-----|             
E|------------------------------------------------------------|          

It's time to forget about the past(the past)
To wash away what happened last(what happened last x2)
Hide behind an empty face(empty face)
Don't have to much to say
'Cause this is just a game,

e|-------------------------------| IT'S A BEAUTIFUL LIE
B|-------------------------------| IT'S A PERFECT DENIAL
G|--9------5------7--------------| SUCH A BEAUTIFUL LIE TO BELIEVE IN       
D|--9-(x32)5-(x32)7-(x32)-14(x32)|                                        
A|--7------3------5-------12-----| SO BEAUTIFUL, BEAUTIFUL              
E|------------------------12-----| THAT MAKES ME   

OHHHHHHHHHHHOOOOHOOOOOO              (DRUM SOLO) + intro tab

BEAUTIfuuuuuuuuuuuuuuuuuuuuuulllllllll  AAAAAHHOOOOOOOOO

Everyone's lookin at me....
I'm running 'round in circles,  baby
A quiet desperation's building higher
I've got to rememver this is just a game

e|------------------------------|So beautiful,beautiful,it's a beautiful lie
B|------------------------------|So beautiful,beautiful,it's a beautiful lie
G|--9------5------7------9------|So beautiful,beautiful,its a beautiful    
D|--9-(x32)5-(x32)7-(x32)9-(32)-|                                         
A|--7------3------5------7------|So beautiful, beautiful,              
E|------------------------------|It's a beautiful LIEEEEEEEEEEEE 

END CHORUS:
e|-------------------------------| IT'S A BEAUTIFUL LIE
B|-------------------------------| IT'S A PERFECT DENIAL
G|--9------5------7------9-------| SUCH A BEAUTIFUL LIE TO BELIEVE IN       
D|--9-(x32)5-(x32)7-(x32)9-(32)--|                                        
A|--7------3------5------7-------| SO BEAUTIFUL, BEAUTIFUL              
E|-------------------------------| THAT MAKES ME   




| /  slide up
| \  slide down
| h  hammer-on
| p  pull-off
| ~  vibrato
| +  harmonic
| x  Mute note
===============================================================================
comments
print report bad tab
17 comments total. Showing first comments.
0 reply
swing life away 95 wrote on July 17 2007, 02:04 pm

good tab man

-1 reply
gothchickrulez 74 wrote on April 2 2008, 08:10 pm

well it is a good tab except one thing really soft in the background in the first verse or throughout the whole song and you can here it around 00:35-45 seconds in the well here it goes

e:-------------------
B:-------------------
G:-------------------
D:-------------------
A:--12-14-15--12-----
E:-------------------
2X

e:---------------
B:---------------
G:---------------
D:---------------
A:--12-14-15-----
E:---------------
10X

if it comes out wierd sorry i really don't know how to make corrections.

0 reply
gothchickrulez 74 wrote on April 2 2008, 08:14 pm

everything you have on your tab is correct it just becauser you left out the firt verse but did the second verse.

I want to post or [tab]
guest
You may want to rate the tab now too:
select rating
Please do not post tabs as comments. Select "correction" instead!