Oops, an error
Loading. Please wait.

A Beautiful Lie Tab

version 4
version 4
5,557 views 1 this week
no commentswrite comment
1 2 3 4 5
accurate
x 5
add to favorites
launch autoscroll
font size
0
reset
how to read this tab
guitar tuner
Tab Pro tools
  • play this tab
  • loop segment
  • change instrument
  • show fretboard
  • metronome
×
Best way to learn
"A Beautiful Lie"
Autoscroll
slow
fast
+/-
esc
set tempo
stop
Contributor
Difficulty
intermediate
-------------------------------------------------------------------------------
                       A Beautiful Lie - 30 Seconds to Mars
-------------------------------------------------------------------------------
Tabbed by: Chris Fiegel
Email: dayzofdesire@hotmail.com

Tuning: Standard




(piano intro arranged for guitar)
|-------------|
|-13-12-------|
|-------12---o|
|------------o|
|-------------|
|-------------|  X2


(Distorted guitar intro)
|----------|
|----------|
|-9-10-7-9-|
|-x-X--X-X-|
|-7-8--5-7-|
|----------|

each octave spans 4 messures.


(verse, keyboards arranged for guitar)
|---------------------------------| 
|---------------------------------| 
|-------------9-9---------9-9-9-9-| 
|---------9-9---------9-9---------| 
|-7-7-7-7---------7-7-------------| 
|----------------------------(x2)-| 

|------------------------------------------| 
|------------------------------------------| 
|---------------10-10----------10-10-10-10-| 
|---------10-10----------10-10-------------| 
|-8-8-8-8------------8-8-------------------| 
|-------------------------------------(x2)-| 

|---------------------------------| 
|---------------------------------| 
|-------------7-7---------7-7-7-7-| 
|---------7-7---------7-7---------| 
|-5-5-5-5---------5-5-------------| 
|----------------------------(x2)-| 

|---------------------------------| 
|---------------------------------| 
|-------------9-9---------9-9-9-9-| 
|---------9-9---------9-9---------| 
|-7-7-7-7---------7-7-------------| 
|----------------------------(x2)-| 
 
(verse 1 and verse 2 one time through)



(chorus)
|----------|
|----------|
|-9-10-7-9-|
|-9-10-7-9-|
|-7-8--5-7-|
|----------|

each chord spans 4 messures.


(break down)
|-------------|
|-13-12-------|
|-------12---o|
|------------o|
|-------------|
|-------------|  X3

|-------------|
|-12-13-12----|
|-------------|
|-------------|
|-------------|
|-------------|  

(verse 3 has one note for piano)
|--------|
|--------|
|-12~----|
|--------|
|--------|
|--------|

(pre-chorus)
|----------|
|----------|
|-9-10-7-9-|
|-9-10-7-9-|
|-7-8--5-7-|
|----------|

(outro chorus)
|----------------------------------------------------------|
|----------------------------------------------------------|
|-9-------------10-------------7-------------9-------------|
|-9-------------10-------------7-------------9-------------|
|-7-------------8--------------5-------------7-------------|
|----------------------------------------------------------|
|
|
|(with piano)
|----------------------------------------------------------|
|-13-12---------13-12----------13-12----------12-13-12-----|
|-------12------------12-------------12--------------------|
|----------------------------------------------------------|
|----------------------------------------------------------|
|----------------------------------------------------------| 

(outro)
|-------------|
|-13-12-------|
|-------12---o|
|------------o|
|-------------|
|-------------|  X2

Questions or Comments E-mail me Dayzofdesire@hotmail.com

1st Tab.
comments
print report bad tab
I want to post or [tab]
guest
You may want to rate the tab now too:
select rating
Please do not post tabs as comments. Select "correction" instead!