Oops, an error
Loading. Please wait.

A Beautiful Lie Tab

version 6
version 6
2,612 views 1 this week
no commentswrite comment
1 2 3 4 5
please rate
add to favorites
launch autoscroll
font size
0
reset
how to read this tab
guitar tuner
Autoscroll
slow
fast
+/-
esc
set tempo
stop
Help us to improve Ultimate-Guitar.com Take our survey!
×
Author
Difficulty
intermediate
-------------------------------------------------------------------------------
                             A BEAUTIFUL LIE - 30 Seconds To Mars
-------------------------------------------------------------------------------
Tabbed by: Coca30stmMCRFan
Email: kwprettyodd95@gmail.com

Tuning: standard

* ALRIGHTY peole, this is my version of this song. its also my first tab, so just 
leave me a comment. I'm not a fan of random people emailing me. Also, the verse is 
on piano, and i just found it as something fun to play on guitar so you werent 
just sitting there through the verse. The chorus is completely single #s, as on 0, 
1, 3, 5, 7, and 9. The reason they're so close is because i tried to explain the 
strum pattern. i also find it better if its played strumming up and down. only the 
chorus though. the x3 means play 3 times, and the arrow points to what happens the 
fourth time. Finally, with the lyrics, i put what parts you play against the 
lyrics. I hope you like it! THANKS =)*
                  
                   Small piano intro transcribbed onto guitar

e|-------------------------|
B|--13-12-8---13-12-8------|
G|-------------------------|
D|-------------------------|
A|-------------------------|
E|-------------------------|

                            CHORUS
e|-------------------------------------------------------------------------|
B|-------------------------------------------------------------------------|
G|-------------------------------------------------------------------------|
D|--7777-77777-777777777-77777-7777/3333-33333-333333333-33333-3333--------|
A|--7777-77777-777777777-77777-7777/3333-33333-333333333-33333-3333--------|
E|--5555-55555-555555555-55555-5555/1111-11111-111111111-11111-1111--------|

e|-------------------------------------------------------------------------|
B|-------------------------------------------------------------------------|
G|-------------------------------------------------------------------------|
D|--7777-77777-777777777-77777-7777/9999-99999-999999999-99999-9999--------|
A|--5555-55555-555555555-55555-5555/7777-77777-777777777-77777-7777--------|
E|--0000-00000-000000000-00000-0000/0000-00000-000000000-00000-0000--------|
                      
                         VERSE (part one) 
e|--------------------------| 
B|--------------------------|
G|--------------------------|   x3 then on the forth time play
D|--------------------------|                | 
A|--12-12-12-14-14-14-15-15-|                |
E|--------------------------|                |
                                             |
e|--------------------------|                |
B|--------------------------|                |
G|--------------------------|              <-
D|--------------------------|
A|--12-12-12-14-14-14-12-12-|
E|--------------------------|
                      VERSE (part two)
e|--------------------------|
B|--------------------------|
G|--------------------------|    x3 then on the forth time play
D|--------9-9-9-10-10-------|                |
A|--8-8-8-------------------|                |
E|--------------------------|                |
                                             |
e|--------------------------|                | 
B|--------------------------|                | 
G|--------------------------|              <-
D|--------10-10-9-7---------|
A|--8-8-8-------------------|
E|--------------------------|

Look at the lyrics to understand how the verse goes

*Play CHORUS again*
*Play VERSE again*
*Play CHORUS again*
            
             BRIDGE
e|-----------------------------------------|
B|--13-12-8---13-12-8---13-12-8---12-13-12-|
G|-----------------------------------------|
D|-----------------------------------------|
A|-----------------------------------------|
E|-----------------------------------------|

*Play VERSE again*
*Play CHORUS twice*
*Play small Piano intro, used as an outtro*

                  
              Now for lyrics W/parts

[ Play small piano intro ]
[ Play CHORUS, no lyrics ] 

       VERSE
Lie awake in bed at night          [ Play VERSE, part one ]       
And think about your life                   
Do you want to be different?       [ Play VERSE, part two ]
Try to let go of the truth         [ Play VERSE, part one ]
The battles of your youth                   
'Cause this is just a game         [ Play VERSE, part two ]

      CHORUS
It's a beautiful lie               [ Play Chorus]                
It's the perfect denial                  
Such a beautiful lie to believe in       
So beautiful, beautiful lie makes me      

      VERSE
It's time to forget about the past  [ Play VERSE, part one ]
To wash away what happened last     [ Play VERSE, part two ]
Hide behind an empty face           [ Play VERSE, part one ]
Don't ask too much, just say               
'Cause this is just a game          [ Play VERSE, part two ]

      CHORUS
It's a beautiful lie                [ Play CHORUS]                
It's the perfect denial                  
Such a beautiful lie to believe in       
So beautiful, beautiful LIE MAKES ME  

      BRIDGE
(Oh Oh                              [ Play BRIDGE ]
The end of the world)              

      VERSE
Everyone's looking at me            [ Play VERSE, part one ]
I'm running around in circles, baby [ Play VERSE, part two ]
A quiet desperation building higher [ Play VERSE, part one ]
I've got to remember this is just a [ Play VERSE, part two ]
game
   
OVERLAPPING VOICE CHORUS
(So beautiful, beautiful            [ Play CHORUS]
It's a beautiful lie
So beautiful, beautiful       
It's a beautiful lie
So beautiful, beautiful...)

OVERLAPPING VOICE CHORUS
(So beautiful, beautiful            [ Play CHORUS]
It's a beautiful lie
So beautiful, beautiful       
It's a beautiful lie
So beautiful, beautiful...)

[ Play small piano intro, (outtro)]
************************************
Suggest correction
Give kudos to tab author, rate the tab!
1 2 3 4 5
comments
print report bad tab
guest
You may want to rate the tab now too:
select rating
Please do not post tabs as comments. Select "correction" instead!