Oops, an error
Loading. Please wait.

A Modern Myth Tab

version 4
version 4

Interactive

4,777 views 1 this week
no commentswrite comment
1 2 3 4 5
please rate
add to favorites
launch autoscroll
font size
0
reset
how to read this tab
guitar tuner
Autoscroll
slow
fast
+/-
esc
set tempo
stop
Help us to improve Ultimate-Guitar.com Take our survey!
×
A Modern Myth- 30 Seconds To Mars
Guitar Tab
Guitar 1- Whole Step Down Tuning
Guitar 2- Standard Tuning

Intro/ Verse 1
Guitar 1
|-----------------------------------------------------------------|
|-----------------------------------------------------------------|
|--9--9-9-5--5-5----------------------9--9-9-5--5-5-7--7-7-7--7-7-|
|--9--9-9-5--5-5--7--7-7--7--7-7------9--9-9-5--5-5-7--7-7-7--7-7-|
|--7--3-3-3--3-3--7--7-7--7--7-7------7--7-7-3--3-3-5--5-5-5--5-5-|
|-----------------5--5-5--5--5-5-5p3------------------------------|

Guitar 2 (strum harder when Guitar 1 plays a note)
|------------------------------------------------
|------------------------------------------------
|--7-7-7-7-7-7-----------------------------------
|--7-7-7-7-7-7-8-8-8-8-8-8-5-5-5-5-5-5-5-5-5-----
|--5-5-5-5-5-5-8-8-8-8-8-8-5-5-5-5-5-5-5-5-5-----
|--------------6-6-6-6-6-6-3-3-3-3-3-3-3-3-3-3h5-

|-----------------------------------------------------|
|-----------------------------------------------------|
|--7-7-7-7-7-7----------------------------------------|
|--7-7-7-7-7-7-8-8-8-8-8-8-10-10-10-10-10-10-10-10-10-|
|--5-5-5-5-5-5-8-8-8-8-8-8-10-10-10-10-10-10-10-10-10-|
|--------------6-6-6-6-6-6-8--8---8--8--8--8--8--8--8-|

Chorus 1
Guitar 1
|-----------------------------------|
|-----------------------------------|
|--5--5--5-5--5--5-7--7--7-7--7--7--|
|--5--5--5-5--5--5-7--7--7-7--7--7--|    x2
|--3--3--3-3--3--3-5--5--5-5--5--5--|
|-----------------------------------|

Guitar 2
|-------------------------------------------------------------------
|-------------------------------------------------------------------
|--10-10-10-10-10-10-10-10-10-10-9-9-9-9-9-9-9-9-9-9-10-10-10-9-9-9-
|-------------------------------------------------------------------
|-------------------------------------------------------------------
|-------------------------------------------------------------------

|--------------------------------------------------------------------------|
|--------------------------------------------------------------------------|
|--10-10-10-10-10-10-10-10-10-10-10-10-12-12-12-12-12-12-12-12-12-12-12-12-|
|--------------------------------------------------------------------------|
|--------------------------------------------------------------------------|
|--------------------------------------------------------------------------|

Pre-Verse
Guitar 1
|-----------------------------------------------------------------|
|-----------------------------------------------------------------|
|--9--9-9-5--5-5----------------------9--9-9-5--5-5-7--7-7-7--7-7-|
|--9--9-9-5--5-5--7--7-7--7--7-7------9--9-9-5--5-5-7--7-7-7--7-7-|
|--7--3-3-3--3-3--7--7-7--7--7-7------7--7-7-3--3-3-5--5-5-5--5-5-|
|-----------------5--5-5--5--5-5-5p3------------------------------|

Guitar 2
|------------------------------------------------------------------
|------------------------------------------------------------------
|------------------------------------------------------------------
|--12p10-10-10-----------------------------------------------------
|--------------13-12-13-12-13-12-12-10\8-8/10h12-12-12-10h12-12-12-
|------------------------------------------------------------------

|----------------------------------------------------------------|
|----------------------------------------------------------------|
|----------------------------------------------------------------|
|--12p10-10-10-------------------10-12-8-8h10-10-10--8-h10-10-10-|
|--------------13-12-13-12-12-13---------------------------------|
|----------------------------------------------------------------|

Verse 1
Guitar 1
|-----------------------------------------------------------------|
|-----------------------------------------------------------------|
|--9--9-9-5--5-5----------------------9--9-9-5--5-5-7--7-7-7--7-7-|
|--9--9-9-5--5-5--7--7-7--7--7-7------9--9-9-5--5-5-7--7-7-7--7-7-|
|--7--3-3-3--3-3--7--7-7--7--7-7------7--7-7-3--3-3-5--5-5-5--5-5-|
|-----------------5--5-5--5--5-5-5p3------------------------------|

Guitar 2
|------------------------------------------------
|------------------------------------------------
|--7-7-7-7-7-7-----------------------------------
|--7-7-7-7-7-7-8-8-8-8-8-8-5-5-5-5-5-5-5-5-5-----
|--5-5-5-5-5-5-8-8-8-8-8-8-5-5-5-5-5-5-5-5-5-----
|--------------6-6-6-6-6-6-3-3-3-3-3-3-3-3-3-3h5-

|-----------------------------------------------------|
|-----------------------------------------------------|
|--7-7-7-7-7-7----------------------------------------|
|--7-7-7-7-7-7-8-8-8-8-8-8-10-10-10-10-10-10-10-10-10-|
|--5-5-5-5-5-5-8-8-8-8-8-8-10-10-10-10-10-10-10-10-10-|
|--------------6-6-6-6-6-6-8--8---8--8--8--8--8--8--8-|


Chorus 2
Guitar 1
|----------------------------------|
|----------------------------------|
|--5--5--5-5--5--5-7--7--7-7--7--7-|
|--5--5--5-5--5--5-7--7--7-7--7--7-|    X2
|--3--3--3-3--3--3-5--5--5-5--5--5-|
|----------------------------------|

Guitar 2
|-----------------------|
|-----------------------|
|--10--9------10--9-----|
|---------10---------10-|    Repeat as needed
|-----------------------|
|-----------------------|

Bridge   
(Chorus 2) 

Later, Guitar 2 changes pattern to
|-------------------------------------------------------------------------------------|
|-------------------------------------------------------------------------------------|
|--10-10-10-9-9-9--------10-10-10-9-9-9-------10-10-10-9-9-9-------7-7-7-9-9-9--------|
|-----------------10-10-----------------10-10----------------10-10--------------10-10-| 
|-------------------------------------------------------------------------------------|
|-------------------------------------------------------------------------------------|

Repeat as needed

Guitar 2s last notes, Guitar 1 stops playing with Guitar 2
|---------|
|---------|
|--10-9~--|
|---------|
|---------|
|---------|

Suggest correction
What's this?
You can suggest a correction to this tab. Community and Mods will review your correction and vote to approve or reject it.
comments
We did not receive enough feedback on this tab! Please rate:
print report bad tab
1 2 3 4 5
guest
You may want to rate the tab now too:
select rating
Please do not post tabs as comments. Select "correction" instead!