Oops, an error
Loading. Please wait.

Attack Tab

version 2
version 2
128,880 views 78 this week
15 commentsread comments
1 2 3 4 5
x 61
add to favorites
launch autoscroll
font size
0
reset
how to read this tab
guitar tuner
Autoscroll
slow
fast
+/-
esc
set tempo
stop
Help us to improve Ultimate-Guitar.com Take our survey!
×
Author
30 Seconds To Mars - Attack

basically i've tabbed the intro and the rest was easy
the intro is probably not guitar but for those die hards out there go for it
those who want to play everything

don't trusst my strumming patterns as they are not correct, all i've done is
is layout the notes

Standard Tuning :)

[Intro]
Guitar 1
e|--------------------------------------------------|
B|----------------------------------------------13--|
G|-------12----13-12-------12----10-12--------------|
D|-------------------10-------------------10--------|
A|-11-11----11----------11----11-------11----11-----|
E|--------------------------------------------------|

e|--------------------------------------------------|
B|----------------------------------------------13--|
G|-------12----13-12-------12----10-12--------------|
D|-------------------10-------------------10--------|
A|-10-10----10----------10----10-------10----10-----|
E|--------------------------------------------------|

e|----------------------------------8---------------|
B|-----8---9-8------8------8------------------------|
G|--------------------------------------------------|
D|-------------10-------10-----10-------------------|  X2
A|-8-8---8--------8---8------8----8-----------------|
E|--------------------------------------------------|

G1 carrys on playing this
Guitar 2 silent
comes in at about 0:12 on ''suffer''

e|--------------------------------------------|
B|--------------------------------------------|
G|--13-13-13-13-13-13--12-12-12-12-12-12-12-12|
D|---x--x--x--x--x--x---x--x--x--x--x--x--x--x|
A|--11-11-11-11-11-11--10-10-10-10-10-10-10-10|
E|--------------------------------------------|
suffer, be broken    get tired or wasted

e|--------------------------------------------|
B|--------------------------------------------|
G|-13-13-13-13-13-13-13-13-13-13-13-13-13-13--|
D|--x--x--x--x--x--x--x--x--x--x--x--x--x--x--|
A|-11-11-11-11-11-11-11-11-11-11-11-11-11-11--|
E|--------------------------------------------|
Surrender to nothing Or give up what I started

e|--------------------------------------------|
B|--------------------------------------------|
G|--13-13--x-13-13--x--12-12--x-12-12--x-12-12|
D|---x--x--x--x--x--x---x--x--x--x--x--x--x--x|
A|--11-11--x-11-11--x--10-10--x-10-10--x-10-10|
E|--------------------------------------------|
(find a strumming pattern you like here with palms muts if you want)
  And stop this      From end to beginning

e|--------------------------------------------|
B|--------------------------------------------|
G|--13-13-13-13-13-13-------------------------|
D|---x--x--x--x--x--x-------------------------|
A|--11-11-11-11-11-11-------------------------|
E|--------------------------------------------|
A new day is coming    And I am finally free

Both Guitars
e|--------------------------------------------|
B|--------------------------------------------|
G|--6-6-6-6-6-6--8-8-8-8-8-8--10-10-10-10-10--|
D|--x-x-x-x-x-x--x-x-x-x-x-x---x--x--x--x--x--|
A|--4-4-4-4-4-4--6-6-6-6-6-6---8--8--8--8--8--|
E|--------------------------------------------|
   Run Away Run Away I'll Attack Run Away

e|--------------------------------------------|
B|--------------------------------------------|
G|--5-5-5-5-5-5--13-13-13--12-12-12-----------|
D|--x-x-x-x-x-x---x--x--x---x--x--x-----------|
A|--3-3-3-3-3-3--11-11-11--10-10-10-----------|
E|--------------------------------------------|
   Run Away Run Away  Go Change Yourself

e|--------------------------------------------|
B|--------------------------------------------|
G|--6-6-6-6-6-6--8-8-8-8-8-8--10-10-10-10-10--|
D|--x-x-x-x-x-x--x-x-x-x-x-x---x--x--x--x--x--|
A|--4-4-4-4-4-4--6-6-6-6-6-6---8--8--8--8--8--|
E|--------------------------------------------|
   Run Away Run Away Run Away I'll Attack......

e|--------------------------------------------|
B|--------------------------------------------|
G|--17-17-17-17-17-17-17----------------------|
D|---x--x--x--x--x--x--x----------------------|
A|--15-15-15-15-15-15-15----------------------|
E|--------------------------------------------|
   WOOAAAAHHHH (  :)  )

G1
e|--------------------------------------------------|
B|----------------------------------------------13--|
G|-------12----13-12-------12----10-12--------------|
D|-------------------10-------------------10--------|
A|-11-11----11----------11----11-------11----11-----|
E|--------------------------------------------------|
and then plays the intro riff underneath

e|--------------------------------------------|
B|--------------------------------------------|
G|--13-13-13-13-13-13--12-12-12-12-12-12-12-12|
D|---x--x--x--x--x--x---x--x--x--x--x--x--x--x|
A|--11-11-11-11-11-11--10-10-10-10-10-10-10-10|
E|--------------------------------------------|
  kept you forever    But we had to sever

e|--------------------------------------------|
B|--------------------------------------------|
G|-13-13-13-13-13-13-13-13--------------------|
D|--x--x--x--x--x--x--x--x--------------------|
A|-11-11-11-11-11-11-11-11--------------------|
E|--------------------------------------------|
  It ended for both of us   Faster than a . . .

e|--------------------------------------------|
B|--------------------------------------------|
G|--13-13--x-13-13--x--12-12--x-12-12--x-12-12|
D|---x--x--x--x--x--x---x--x--x--x--x--x--x--x|
A|--11-11--x-11-11--x--10-10--x-10-10--x-10-10|
E|--------------------------------------------|
(find a strumming pattern you like here with palms muts if you want)
 Kill off this thinking It's starting to sink in

e|--------------------------------------------|
B|--------------------------------------------|
G|---x-13-13--x-13-13---x-x-13-13-x-x-13-13---|
D|---x--x--x--x--x--x---x-x--x--x-x-x--x--x---|
A|---x-11-11--x-11-11---x-x-11-11-x-x-11-11---|
E|--------------------------------------------|
   I'm losing control now     Without you

e|--------------------------------------------|
B|----13-13--13-13----------------------------|
G|----13-13--13-13----------------------------|
D|-----x--x---x--x----------------------------|
A|----11-11--11-11----------------------------|
E|--------------------------------------------|
   I can finally see.

Both Guitars
e|--------------------------------------------|
B|--------------------------------------------|
G|--6-6-6-6-6-6--8-8-8-8-8-8--10-10-10-10-10--|
D|--x-x-x-x-x-x--x-x-x-x-x-x---x--x--x--x--x--|
A|--4-4-4-4-4-4--6-6-6-6-6-6---8--8--8--8--8--|
E|--------------------------------------------|
   Run Away Run Away I'll Attack Run Away

e|--------------------------------------------|
B|--------------------------------------------|
G|--5-5-5-5-5-5--13-13-13--12-12-12-----------|
D|--x-x-x-x-x-x---x--x--x---x--x--x-----------|
A|--3-3-3-3-3-3--11-11-11--10-10-10-----------|
E|--------------------------------------------|
   Run Away Run Away  Go Change Yourself

e|--------------------------------------------|
B|--------------------------------------------|
G|--6-6-6-6-6-6--8-8-8-8-8-8--10-10-10-10-10--|
D|--x-x-x-x-x-x--x-x-x-x-x-x---x--x--x--x--x--|
A|--4-4-4-4-4-4--6-6-6-6-6-6---8--8--8--8--8--|
E|--------------------------------------------|
   Run Away Run Away Run Away I'll Attack......

e|--------------------------------------------|
B|--------------------------------------------|
G|--17-17-17-17-17-17-17----------------------|
D|---x--x--x--x--x--x--x----------------------|
A|--15-15-15-15-15-15-15----------------------|
E|--------------------------------------------|
   WOOAAAAHHHH (  :)  )

Play intro on its own (no guitar 2)

For:

Your promises
They look like lies
Your honesty
Like a back that hides a knife
I promise you
I promise you
I am finally free   (no guitars this line)

go back to chorus just above
but at the end of the 1st chorus play this
e|--------------------------------------------|
B|--------------------------------------------|
G|--12-12-12-12-12-12-12----------------------|
D|---x--x--x--x--x--x--x----------------------|
A|--10-10-10-10-10-10-10----------------------|
E|--------------------------------------------|
   WOOAAAAHHHH (  :)  )

(for a 2nd guitar)+ this is for the 2nd time around, words dnt really coincide because 
singing over himself .... a lot
e|--------------------------------------------|
B|--12--12--12--12--12--12--12--12--12--12----|
G|---x---x---x---x---x---x---x---x---x---x----|
D|---9---9---9---9---9---9---9---9---9---9----|
A|--------------------------------------------|
E|--------------------------------------------|
   Run Away Run Away I'll Attack Run Away

e|--------------------------------------------|
B|--13--13--13--13--13--13--13---11--11--11---|
G|---x---x---x---x---x---x---x----x---x---x---|
D|--10--10--10--10--10--10--10----8---8---8---|
A|--------------------------------------------|
E|--------------------------------------------|
   Run Away Run Away  I'll Attack Run Away

e|--------------------------------------------|
B|-11--11--11--11---9-9-9-9-9-9--8-8-8-8-8-8--|
G|--x---x---x---x---x-x-x-x-x-x--x-x-x-x-x-x--|
D|--8---8---8---8---6-6-6-6-6-6--5-5-5-5-5-5--|
A|--------------------------------------------|
E|--------------------------------------------|
   Run Away Run Away Run Away I'll Attack......

e|--------------------------------------------|
B|--13--13--13--13--13--13--------------------|
G|---x---x---x---x---x---x--------------------|
D|--10--10--10--10--10--10--------------------|
A|--------------------------------------------|
E|--------------------------------------------|
then end with the intro basically over this:

Your promises
They look like lies
Your honesty
Like a back that hides a knife
I promise you
I promise you

Rate the tab ( i'm always trying to add to it ) also please point out mistakes!



************************************

| x  Dead note

************************************
Suggest correction
comments
print report bad tab
15 comments total. Showing first comments.
0 reply
im_bored 98 May 17, 2007 08:26 PM

no comments?, sounds great and its easy to read so thx i learned it in like 2 minutes

0 reply
Race182 10 May 29, 2007 08:10 AM

great!!!!!!!!

0 reply
mickmars2 528 Oct 04, 2007 09:33 AM

brilliant tab, didn't like this song at first
but after listening to it more it really grew on me.
the only thing i'd change(because everything else is
perfect!) is the chorus...

try this....
|------------------------------------------------
|------------------------------------------------
|-6-----8-----10-----5----13-13-13-13-13-12-12-12
|-6-X16-8-X16-10-X16-5-X8--x--x--x--x--x--x--x--x
|-4-----6------8-----3----11-11-11-11-11-10-10-10
|------------------------------------------------

|-----------------------------
|-----------------------------
|-10-----12-----13-----15-----
|--x-X16--x-X16--x-X16--x-X16
|--8-----10-----11-----15-----
|-----------------------------

guest
You may want to rate the tab now too:
select rating
Wanna post a correction for this tab? Suggest correction