Oops, an error
Loading. Please wait.

Attack Tab

version 4
version 4
4,136 views 9 this week
1 commentread comment
1 2 3 4 5
excellent!
x 3
add to favorites
launch autoscroll
font size
0
reset
how to read this tab
guitar tuner
Autoscroll
slow
fast
+/-
esc
set tempo
stop
Help us to improve Ultimate-Guitar.com Take our survey!
×
Author
Difficulty
rasugod 116
novice
-----------------------------------------------------------------
                 Attack - 30 Seconds to Mars
-----------------------------------------------------------------

Thanks to sunvic for having a great tab! I just fixed some parts! 
Hope everyone likes it! This may not be perfect, but it’s better
than any other tab on the net. I didn’t list every slide, but
you should be able to figure them out.

| /  slide up
| \  slide down
| h  hammer-on
| p  pull-off
| <> harmonic
| x  Mute note

Verse 1:
synth plays bit
guitar comes in on ''suffer''(play 2x as many strums)

e|--------------------------------------------------|
B|--------------------------------------------------|
G|--13-13-13-13-13-13-13-13-12-12-12-12-12-12-15-15-|
D|---x--x--x--x--x--x--x--x--x--x--x--x--x--x--x--x-|
A|--11-11-11-11-11-11-11-11-10-10-10-10-10-10-13-13-|
E|--------------------------------------------------|
  suffer, be broken    get tired or wasted

e|-------------------------------------------------|
B|-------------------------------------------------|
G|-13-13-13-13-13-13-13-13-13-13-13-13-13-13-13-13-|
D|--x--x--x--x--x--x--x--x--x--x--x--x--x--x--x--x-|
A|-11-11-11-11-11-11-11-11-11-11-11-11-11-11-11-11-|
E|-------------------------------------------------|
  Surrender to nothing   Or   give up what I

e|-------------------------------------------------|
B|-------------------------------------------------|
G|-13-13-13-13-13-13-13-13-12-12-12-12-12-12-15-15-|
D|--x--x--x--x--x--x--x--x--x--x--x--x--x--x--x--x-|
A|-11--x-11--x-11--x-11--x-10-10-10-10-10-10-13-13-|
E|-------------------------------------------------|
 (keep strumming 2x as many)
 Started And stop this      From end to beginning

e|--------------------------------------------|
B|--------------------------------------------|
G|--17-17-17-17-17-17-17-17-------------------|
D|---x--x--x--x--x--x--x--x-------------------|
A|--15-15-15-15-15-15-15-15-------------------|
E|--------------------------------------------|
   A new day is coming    And I am finally free

Chorus:
e|----------------------------------------------------------|
B|----------------------------------------------------------|
G|--6-6-6-6-6-6-6-6-8-8-8-8-8-8-8-8-10-10-10-10-10-10-10-10-|
D|--x-x-x-x-x-x-x-x-x-x-x-x-x-x-x-x--x--x--x--x--x--x--x--x-|
A|--4-4-4-4-4-4-4-4-6-6-6-6-6-6-6-6--8--8--8--8--8--8--8--8-|
E|----------------------------------------------------------|
       Run Away Run Away  I'll  Attack   Run Away    Run Away

e|----------------------|
B|----------------------|
G|--5-5-5-5/13-13-12-12-|
D|--x-x-x-x--x--x--x--x-|
A|--3-3-3-3/11-11-10-10-|
E|----------------------|
         Go Chase Yourself

e|----------------------------------------------------------|
B|----------------------------------------------------------|
G|--6-6-6-6-6-6-6-6-8-8-8-8-8-8-8-8-10-10-10-10-10-10-10-10-|
D|--x-x-x-x-x-x-x-x-x-x-x-x-x-x-x-x--x--x--x--x--x--x--x--x-|
A|--4-4-4-4-4-4-4-4-6-6-6-6-6-6-6-6--8--8--8--8--8--8--8--8-|
E|----------------------------------------------------------|
          Run Away Run Away Run Away   I'll Attack (x3)

e|--------------------------------------------|
B|--------------------------------------------|
G|--17-17-17-17-17-17-17-17-------------------|
D|---x--x--x--x--x--x--x--x-------------------|
A|--15-15-15-15-15-15-15-15-------------------|
E|--------------------------------------------|
   WOOAAAAHHHH!

Verse 2:
synth plays bit

e|--------------------------------------------------|
B|--------------------------------------------------|
G|--13-13-13-13-13-13-13-13-12-12-12-12-12-12-15-15-|
D|---x--x--x--x--x--x--x--x--x--x--x--x--x--x--x--x-|
A|--11-11-11-11-11-11-11-11-10-10-10-10-10-10-13-13-|
E|--------------------------------------------------|
    kept you forever    But we had to sever

e|--------------------------------------------|
B|--------------------------------------------|
G|-13-13-13-13-13-13-13-13--------------------|
D|--x--x--x--x--x--x--x--x--------------------|
A|-11-11-11-11-11-11-11-11--------------------|
E|--------------------------------------------|
  It ended for both of us   Faster than a . . .


e|-------------------------------------------------|
B|-------------------------------------------------|
G|-13-13-13-13-13-13-13-13-12-12-12-12-12-12-15-15-|
D|--x--x--x--x--x--x--x--x--x--x--x--x--x--x--x--x-|
A|-11--x-11--x-11--x-11--x-10-10-10-10-10-10-13-13-|
E|-------------------------------------------------|
(keep strumming 2x as many)
Kill off this thinking It's starting to sink in

e|-----------------------------------------|
B|-----------------------------------------|
G|--17-17-17-17-17-17-17-17--x--x--x--x--x-|
D|---x--x--x--x--x--x--x--x--x--x--x--x--x-|
A|--15-15-15-15-15-15-15-15-11--x-11--x-11/|
E|-----------------------------------------|
   I'm losing control now  Without you  I can

e|--------------------|
B|--------------------|
G|-17-17-17-17--------|
D|--x--x--x--x--------|
A|--x--x--x--x--------|
E|--------------------|
     finally see.

Chorus:
e|----------------------------------------------------------|
B|----------------------------------------------------------|
G|--6-6-6-6-6-6-6-6-8-8-8-8-8-8-8-8-10-10-10-10-10-10-10-10-|
D|--x-x-x-x-x-x-x-x-x-x-x-x-x-x-x-x--x--x--x--x--x--x--x--x-|
A|--4-4-4-4-4-4-4-4-6-6-6-6-6-6-6-6--8--8--8--8--8--8--8--8-|
E|----------------------------------------------------------|
       Run Away Run Away  I'll  Attack   Run Away    Run Away

e|----------------------|
B|----------------------|
G|--5-5-5-5/13-13-12-12-|
D|--x-x-x-x--x--x--x--x-|
A|--3-3-3-3/11-11-10-10-|
E|----------------------|
         Go Chase Yourself

e|----------------------------------------------------------|
B|----------------------------------------------------------|
G|--6-6-6-6-6-6-6-6-8-8-8-8-8-8-8-8-10-10-10-10-10-10-10-10-|
D|--x-x-x-x-x-x-x-x-x-x-x-x-x-x-x-x--x--x--x--x-10-10-10-10-|
A|--4-4-4-4-4-4-4-4-6-6-6-6-6-6-6-6--8--8--8--8--8--8--8--8-|
E|----------------------------------------------------------|
         Run Away Run Away Run Away   I'll Attack (x3)

e|--------------------------------------------|
B|--------------------------------------------|
G|--17-17-17-17-17-17-17-17-------------------|
D|---x--x--x--x--x--x--x--x-------------------|
A|--15-15-15-15-15-15-15-15-------------------|
E|--------------------------------------------|
   WOOAAAAHHHH!

Bridge(palm mute all):
e|-----------------------------------------|
B|-----------------------------------------|
G|-----------------------------------------|
D|-----------------------------------------|
A|-10-10-10-10-10-10-10-10-8-8-8-8-8-8-8-8-|
E|-----------------------------------------|
                 Your promises   they look like

e|----------------------------------|
B|----------------------------------|
G|----------------------------------|
D|----------------------------------|
A|--6-6-6-6-6-6-6-6-6-6-6-6-6-6-6-6-|
E|----------------------------------|
  lies   your honesty Like a back that hides a 



e|-----------------------------------------|
B|-----------------------------------------|
G|-----------------------------------------|
D|-----------------------------------------|
A|-8-8-8-8-8-8-8-8-10-10-10-10-10-10-10-10-|
E|-----------------------------------------|
knife  I promise you          I promise you
  
e|------------------------------------|
B|------------------------------------|
G|------------------------------------|
D|------------------------------------|
A|-11-11-11-11-11-11-11-11------------|
E|------------------------------------|
                         I am finally free   
Chorus:
e|----------------------------------------------------------|
B|----------------------------------------------------------|
G|--6-6-6-6-6-6-6-6-8-8-8-8-8-8-8-8-10-10-10-10-10-10-10-10-|
D|--x-x-x-x-x-x-x-x-x-x-x-x-x-x-x-x--x--x--x--x--x--x--x--x-|
A|--4-4-4-4-4-4-4-4-6-6-6-6-6-6-6-6--8--8--8--8--8--8--8--8-|
E|----------------------------------------------------------|
          Run Away Run Away  I'll  Attack   Run Away    Run Away

e|----------------------|
B|----------------------|
G|--5-5-5-5-13-13-12-12-|
D|--x-x-x-x--x--x--x--x-|
A|--3-3-3-3-11-11-10-10-|
E|----------------------|
         Go Change Yourself

e|----------------------------------------------------------|
B|----------------------------------------------------------|
G|--6-6-6-6-6-6-6-6-8-8-8-8-8-8-8-8-10-10-10-10-10-10-10-10-|
D|--x-x-x-x-x-x-x-x-x-x-x-x-x-x-x-x--x--x--x--x--x--x--x--x-|
A|--4-4-4-4-4-4-4-4-6-6-6-6-6-6-6-6--8--8--8--8--8--8--8--8-|
E|----------------------------------------------------------|
      Run Away Run Away Run Away   I'll Attack (x3)

e|--------------------------|
B|--------------------------|
G|--10-10-10-10-10-10-10-10-|
D|--10-10-10-10-10-10-10-10-|
A|---8--8--8--8--8--8--8--8-|
E|--------------------------|
          I will attack

e|----------------------------------------------------------|
B|----------------------------------------------------------|
G|--6-6-6-6-6-6-6-6-8-8-8-8-8-8-8-8-10-10-10-10-10-10-10-10-|
D|--x-x-x-x-x-x-x-x-x-x-x-x-x-x-x-x--x--x--x--x--x--x--x--x-|
A|--4-4-4-4-4-4-4-4-6-6-6-6-6-6-6-6--8--8--8--8--8--8--8--8-|
E|----------------------------------------------------------|
                        I will attack
                         

e|----------------------|
B|----------------------|
G|--5-5-5-5-13-13-12-12-|
D|--x-x-x-x--x--x--x--x-|
A|--3-3-3-3-11-11-10-10-|
E|----------------------|
            I will attack

e|----------------------------------------------------------|
B|----------------------------------------------------------|
G|--6-6-6-6-6-6-6-6-8-8-8-8-8-8-8-8-10-10-10-10-10-10-10-10-|
D|--x-x-x-x-x-x-x-x-x-x-x-x-x-x-x-x--x--x--x--x--x--x--x--x-|
A|--4-4-4-4-4-4-4-4-6-6-6-6-6-6-6-6--8--8--8--8--8--8--8--8-|
E|----------------------------------------------------------|
                                     aaaaaaaaahhhh  aaaaaahhhh

e|--------------------------------------------|
B|--------------------------------------------|
G|--17-17-17-17-17-17-17-17-------------------|
D|---x--x--x--x--x--x--x--x-------------------|
A|--15-15-15-15-15-15-15-15-------------------|
E|--------------------------------------------|
   AAAAAAAAHHHHHHHHHHHHH!

Outro(palm mute all):
e|-----------------------------------------|
B|-----------------------------------------|
G|-----------------------------------------|
D|-----------------------------------------|
A|-10-10-10-10-10-10-10-10-8-8-8-8-8-8-8-8-|
E|-----------------------------------------|
                                 Your promises   

e|----------------------------------|
B|----------------------------------|
G|----------------------------------|
D|----------------------------------|
A|--6-6-6-6-6-6-6-6-6-6-6-6-6-6-6-6-|
E|----------------------------------|
                         I promise you

e|-----------------------------------------|
B|-----------------------------------------|
G|-----------------------------------------|
D|-----------------------------------------|
A|-8-8-8-8-8-8-8-8-10-10-10-10-10-10-10-10-|
E|-----------------------------------------|
             I promise you        
  
e|------------------------------------|
B|------------------------------------|
G|------------------------------------|
D|------------------------------------|
A|-11-11-11-11-11-11-11-11------------|
E|------------------------------------|
Suggest correction new What's this?
You can suggest a correction to this tab. Community and Mods will review your correction and vote to approve or reject it.
comments
We did not receive enough feedback on this tab! Please rate:
print report bad tab
1 2 3 4 5
1 comment total.
0 reply
xMesaplayerx 40 wrote on January 26 2009, 08:28 pm

Awesome Job! A++

guest
You may want to rate the tab now too:
select rating
Please do not post tabs as comments. Select "correction" instead!