Oops, an error
Loading. Please wait.

Attack Tab

version 5
version 5
3,005 views 3 this week
no commentswrite comment
1 2 3 4 5
please rate
add to favorites
launch autoscroll
font size
0
reset
how to read this tab
guitar tuner
Tab Pro tools
  • play this tab
  • loop segment
  • change instrument
  • show fretboard
  • metronome
×
Best way to learn
"Attack"
Autoscroll
slow
fast
+/-
esc
set tempo
stop
Attack- 30 Seconds To Mars                                                               
        Tabbed By Shayne Hayes
Guitar Tab
Half Step Up Tuning

Synth Intro Tabbed for Guitar
|-----------------------------------------------|
|--------------------------------------------12-|
|--------11----12-11-9----11----9-11----9-9-----|
|-----------------------------------------------|
|--10-10----10---------10----10-------10--------|
|-----------------------------------------------|

|-----------------------------------------|
|--------------------------------------12-|
|------11---12-11-9---11---9-11---9-9-----|
|-----------------------------------------|
|--9-9----9---------9----9------9---------|
|-----------------------------------------|

|-----------------------------------------|
|--------------------------------------12-|
|------11---12-11-9---11---9-11---9-9-----|
|-----------------------------------------| repeat last measure
|--7-7----7---------7----7------7---------|
|-----------------------------------------|


Guitar Intro
Guitar 1
|-----------------------------------------------------------------|
|-----------------------------------------------------------------|
|--12-12-12-12-12-12-11-11-11-11-11-11-14-14-14-12-12-12-12-12-12-|
|--12-12-12-12-12-12-11-11-11-11-11-11-14-14-14-12-12-12-12-12-12-|
|--10-10-10-10-10-10-9--9--9--9--9--9--12-12-12-12-10-10-10-10-10-|
|-----------------------------------------------------------------|

Guitar 2
|-------------------------------------------------------------|
|-------------------------------------------------------------|
|--12-12-12-12-12-12-11-11-11-11-11-11-9-9-9-9-9-9-9-9-9-9-9--|
|--12-12-12-12-12-12-11-11-11-11-11-11-9-9-9-9-9-9-9-9-9-9-9--|
|--10-10-10-10-10-10-9--9--9--9--9--9--7-7-7-7-7-7-7-7-7-7-7--|
|-------------------------------------------------------------|


Verse
Guitar1
|--------------------------------------------------------|
|--------------------------------------------------------|
|--------------------------------------------------------|
|--10-10-10-10-10-10-12-12-12-12-12-12-14-14-14-14-14-14-|
|--10-10-10-10-10-10-12-12-12-12-12-12-14-14-14-14-14-14-|
|--8--8--8--8--8--8--10-10-10-10-10-10-12-12-12-12-12-12-|

Guitar 2
|-----------------------------------------------------------|
|-----------------------------------------------------------|
|--12-12-12-12-12-12-14-14-14-14-14-14-16-16-16-16-16-16-16-|
|--12-12-12-12-12-12-14-14-14-14-14-14-16-16-16-16-16-16-16-|
|--10-10-10-10-10-10-12-12-12-12-12-12-14-14-14-14-14-14-14-|
|-----------------------------------------------------------|


Chorus 1
Guitar 1
|--------------------------------------------------------|
|--------------------------------------------------------|
|--------------------------------------------------------|
|--10-10-10-10-10-10-12-12-12-12-12-12-14-14-14-14-14-14-|
|--10-10-10-10-10-10-12-12-12-12-12-12-14-14-14-14-14-14-|
|--8--8--8--8--8--8--10-10-10-10-10-10-12-12-12-12-12-12-|

1st Ending
|--------------------------------------|
|--------------------------------------|
|--------------12-12-12-12-11-11-11-11-|
|--9-9-9-9-9-9-12-12-12-12-11-11-11-11-|
|--9-9-9-9-9-9-10-10-10-10-9--9--9--9--|
|--7-7-7-7-7-7-------------------------|

Guitar 2
|--------------------------------------------------------------------------------------------|
|--------------------------------------------------------------------------------------------|
|--------------------------------------------------------------------12-12-12-12-11-11-11-11-|
|--10-10-10-10-10-10-12-12-12-12-12-12-14-14-14-14-14-14-9-9-9-9-9-9-12-12-12-12-11-11-11-11-|
|--10-10-10-10-10-10-12-12-12-12-12-12-14-14-14-14-14-14-9-9-9-9-9-9-10-10-10-10-9--9--9--9--|
|--8---8--8---8--8---8--10-10-10-10-10-10-12-12-12-12-12-12-7-7-7-7-7-7----------------------|

|--------------------------------------------------------------------------------|
|--------------------------------------------------------------------------------|
|--9-9-9-9-9-9-11-11-11-11-11-11-12-12-12-12-12-12-16-16-16-16-16-16-16-16-16-16-|
|--------------------------------------------------------------------------------|
|--------------------------------------------------------------------------------|
|--------------------------------------------------------------------------------|

Intro

Verse

Pre-Chorus
|--------------------------|
|--------------------------|
|-------------17-17-17-17--|
|--9xx9xx9xx--17-17-17-17--|
|--9xx9xx9xx--15-15-15-15--|
|--7xx7xx7xx---------------|


Chorus 2
Guitar 1
|--------------------------------------------------------|
|--------------------------------------------------------|
|--------------------------------------------------------|
|--10-10-10-10-10-10-12-12-12-12-12-12-14-14-14-14-14-14-|
|--10-10-10-10-10-10-12-12-12-12-12-12-14-14-14-14-14-14-|
|--8--8--8--8--8--8--10-10-10-10-10-10-12-12-12-12-12-12-|

1st Ending
|--------------------------------------|
|--------------------------------------|
|--------------12-12-12-12-11-11-11-11-|
|--9-9-9-9-9-9-12-12-12-12-11-11-11-11-|
|--9-9-9-9-9-9-10-10-10-10-9--9--9--9--|
|--7-7-7-7-7-7-------------------------|


Guitar 2
|--------------------------------------------------------------------------------------------|
|--------------------------------------------------------------------------------------------|
|--------------------------------------------------------------------12-12-12-12-11-11-11-11-|
|--10-10-10-10-10-10-12-12-12-12-12-12-14-14-14-14-14-14-9-9-9-9-9-9-12-12-12-12-11-11-11-11-|
|--10-10-10-10-10-10-12-12-12-12-12-12-14-14-14-14-14-14-9-9-9-9-9-9-10-10-10-10-9--9--9--9--|
|--8---8--8---8--8---8--10-10-10-10-10-10-12-12-12-12-12-12-7-7-7-7-7-7----------------------|

|--------------------------------------------------------------------------------|
|--------------------------------------------------------------------------------|
|--9-9-9-9-9-9-11-11-11-11-11-11-12-12-12-12-12-12-16-16-16-16-16-16-16-16-16-16-|
|--------------------------------------------------------------------------------|
|--------------------------------------------------------------------------------|
|--------------------------------------------------------------------------------|


Bridge
(all palm muted)
|----------------------------------------------------------------|
|----------------------------------------------------------------|
|----------------------------------------------------------------|
|----------------------------------------------------------------|
|--10-10-10-10-10-10-9-9-9-9-9-9-7-7-7-7-7-7-7-7-7-7-7-7-7-7-7-7-|
|----------------------------------------------------------------|

|--------------------------------------------------------------------|
|--------------------------------------------------------------------|
|--------------------------------------------------------------------|
|--------------------------------------------------------------------|
|--------------------------------------------------------------------|
|--8-8-8-8-8-8-10-10-10-10-10-10-12-12-12-12-12-12-12-12-12-12-12-12-|

Chorus 3
Guitar1
|--------------------------------------------------------|
|--------------------------------------------------------|
|--------------------------------------------------------|
|--10-10-10-10-10-10-12-12-12-12-12-12-14-14-14-14-14-14-|
|--10-10-10-10-10-10-12-12-12-12-12-12-14-14-14-14-14-14-|
|--8--8--8--8--8--8--10-10-10-10-10-10-12-12-12-12-12-12-|
|--------------------------------------------------------|

|---------------------------------------------------------|
|---------------------------------------------------------|
|--10-10-10-10-10-10-12-12-12-12-12-12-14-14-14-14-14-14--|
|--10-10-10-10-10-10-12-12-12-12-12-12-14-14-14-14-14-14--|
|--8--8--8--8--8--8--10-10-10-10-10-10-12-12-12-12-12-12--|
|---------------------------------------------------------|
|--------------------------|------------------------------|

1st Ending
|--------------------------------------|
|--------------------------------------|
|--------------12-12-12-12-11-11-11-11-|
|--9-9-9-9-9-9-12-12-12-12-11-11-11-11-|
|--9-9-9-9-9-9-10-10-10-10-9--9--9--9--|
|--7-7-7-7-7-7-------------------------|

3rd  Ending
|--------------------------------------|
|--------------------------------------|
|--------------12-12-12-12-11-11-11-11-|
|--9-9-9-9-9-9-12-12-12-12-11-11-11-11-|
|--9-9-9-9-9-9-10-10-10-10-9--9--9--9--|
|--7-7-7-7-7-7-------------------------|

Guitar 2
|---------------------------------------------------------------------------------|
|---------------------------------------------------------------------------------|
|-12-12-12-12-12-12-12-12-9-9-9-9-11-11-11-11-12-12-12-12-14-14-14-14-14-14-14-14-|
|---------------------------------------------------------------------------------|
|---------------------------------------------------------------------------------|
|---------------------------------------------------------------------------------|


|----------------------------------------------------------------------------------------|
|----------------------------------------------------------------------------------------|
|--16-16-16-16-16-16-16-16-16-16-16-16-14-14-14-14-12-12-12-12-9-9-9-9-16-16-16-16-16-16-|
|----------------------------------------------------------------------------------------|
|----------------------------------------------------------------------------------------|
|----------------------------------------------------------------------------------------|


Outro   (Bridge)


Please rate. Any questions or comments, email me at blackguitar864@gmail.com
comments
We did not receive enough feedback on this tab! Please rate:
print report bad tab
1 2 3 4 5
I want to post or [tab]
guest
You may want to rate the tab now too:
select rating
Please do not post tabs as comments. Select "correction" instead!