Oops, an error
Loading. Please wait.

Battle Of One Tab

version 1
version 1

Whole song

Interactive

8,828 views 1 this week
7 commentsread comments
1 2 3 4 5
x 4
add to favorites
launch autoscroll
font size
0
reset
how to read this tab
guitar tuner
Autoscroll
slow
fast
+/-
esc
set tempo
stop
Help us to improve Ultimate-Guitar.com Take our survey!
×
Author
Difficulty
intermediate
Intro/Verses

D|-------------------------------------------------------------------------|
A|-------------------------------------------------------------------------|
F|-------------------------------------------------------------------------|
C|------0-0-0-0-------0-0-0-0---------0-0-0-0------------------------------|
G|---3--------------3---------------3--------------------------------------|
C|-0--------------0---------------0----------------------------------------|

(Repeat lots of times)

Bit at 17 seconds roughly

D|----------------|--------------------------------------------------------|
A|----------------|--------------------------------------------------------|
F|----------------|--------------------------------------------------------|
C|-1-1-1-0-0------|-------0-0-0-0----------REPEAT--------------------------|
G|--------------3-|----3---------------------------------------------------|
C|----------------|--0-----------------------------------------------------|

Chorus intro part:

D|-------------------------------------------------------------------------|
A|-------------------------------------------------------------------------|
F|-------------------------------------------------------------------------|
C|-0-1-0-3-0-5-0---then back to---------------0-0-0-0-0--------------------|
G|-----------------------------------------3-------------------------------|
C|--------------------------------------0----------------------------------|
 
Chorus middle/end part: 

D|-----10-10-10-10-10-10-10-12-12-12-12-12-13-13---------------------------|
A|-13----------------------------------------------------------13----------|
F|-------------------------------------------------------------------------|
C|-------------------------------------------------------------------------|
G|-------------------------------------------------------------------------|
C|-------------------------------------------------------------------------|

That’s the majority of it, except for a little solo part which I tabbed out,
decided it was crap, and then didn’t bother retabbing as it’s similar to parts.
I’m not really sure how accurate to the song it really is, but it sounds pretty
decent on my current set-up of my fancy-shmancy Marshall 250DFX amp, Boss DS-1
Distortion Pedal and my Maverick X1 guitar.

Don’t shoot me if you don’t like it!
Suggest correction
comments
print report bad tab
7 comments total. Showing first comments.
0 reply
megarocker7 31 May 16, 2006 06:09 PM

Good tab. What you did tab seems right mostly. On the intro riff I would go with:
D|--------------------------------------------------------
A|--------------------------------------------------------
F|--------------------------------------------------------
C|--------------------------------------------------------
G|---3---5-5-5-----3---5-5-5-------3---5-5-5--------------
C|-0--------------0---------------0-----------------------
It's pretty much the same thing but sounds better in my opinion. I'll give you 4 stars.

0 reply
megarocker7 31 May 16, 2006 06:10 PM

Sorry. There should be another 5 on all those parts.

0 reply
powerchord 60 Sep 12, 2006 03:33 PM

This tab is completely incorrect and makes no sense at all.

guest
You may want to rate the tab now too:
select rating
Wanna post a correction for this tab? Suggest correction