Oops, an error
Loading. Please wait.

Closer To The Edge Tab

version 1
version 1

Acoustic

Whole song

Interactive

17,617 views 60 this week
no commentswrite comment
1 2 3 4 5
x 14
add to favorites
launch autoscroll
font size
0
reset
how to read this tab
guitar tuner
Autoscroll
slow
fast
+/-
esc
set tempo
stop
Help us to improve Ultimate-Guitar.com Take our survey!
×
Author
Difficulty
novice
Intro and verse:

(Use palm muting)
e]-----------------------------------------------------------------|
B]-----------------------------------------------------------------|
G]-----------------------------------------------------------------|
D]-----------------------------------------------------------------|
A]--4-----4-----4---4-----4-----4---8-----8-----8---8-----8-----8--|
E]--2-2-2-2-2-2-2-2-2-2-2-2-2-2-2-2-6-6-6-6-6-6-6-6-6-6-6-6-6-6-6-6|

e]-------------------------------------------------[
B]-------------------------------------------------[
G]-------------------------------------------------[
D]-8-----8-----8---6-----6-----6---4-----4-----4---[
A]-6-6-6-6-6-6-6-6-4-4-4-4-4-4-4-4-2-2-2-2-2-2-2-2-[
E]-------------------------------------------------[

1.I don't remember the moment I tried to forget
I lost myself is it better not said
Now I'm closer to the edge

2.It was a thousand to one and a million to two
Time to go down in flames and I'm taking you
Closer to the edge

Refrain:

e]-----------------------------------------------------------------|
B]-----------------------------------------------------------------|
G]-----------------------------------------------------------------|
D]--4-4-4-4-4-4-4-4-4-4-4-4-4-4-4-4-8-8-8-8-8-8-8-8-8-8-8-8-8-8-8-8|
A]--4-4-4-4-4-4-4-4-4-4-4-4-4-4-4-4-8-8-8-8-8-8-8-8-8-8-8-8-8-8-8-8|
E]--2-2-2-2-2-2-2-2-2-2-2-2-2-2-2-2-6-6-6-6-6-6-6-6-6-6-6-6-6-6-6-6|

e]-------------------------------------------------[
B]-------------------------------------------------[
G]-8-8-8-8-8-8-8-8-6-6-6-6-6-6-6-6-4-4-4-4-4-4-4-4-[
D]-8-8-8-8-8-8-8-8-6-6-6-6-6-6-6-6-4-4-4-4-4-4-4-4-[
A]-6-6-6-6-6-6-6-6-4-4-4-4-4-4-4-4-2-2-2-2-2-2-2-2-[
E]-------------------------------------------------[

No I'm not saying I'm sorry   \
One day maybe we'll meet again/  x2

3.Can you imagine time when the truth ran free
The birth of the sun and the death of a dream
Closer to the edge

BRIDGE (tabs the same as in VERSE):
This neverending story
Paid for with pride and fate
We all fall short of glory
Lost in our fate!

Ref: No I'm not saying...

And now...

NO, NO, NO, NO!  I will never forget. NO, NO!  I will never regret.
e]-----------------------------------------------------------------|
B]-----------------------------------------------------------------|
G]-----------------------------------------------------------------|
D]----------4-4---------------------------8-8----------------------|
A]----------4-4---------------------------8-8----------------------|
E]----------2-2---------------------------6-6----------------------|

NO, NO! I will live my life. \
e---------------------------- \
B----------------------------  \
G---8-8--------6-6-----4-4---   x2 (On second time last power chord
D---8-8--------6-6-----4-4---  /    nine times, not two)
A---6-6--------4-4-----2-2--- /
E----------------------------/

Ref: No I'm not saying...

Closer to the edge!\
Closer to the Edge!/x2

(NO, NO, NO, NO)

Closer to the edge
Suggest correction
comments
print report bad tab
guest
You may want to rate the tab now too:
select rating
Wanna post a correction for this tab? Suggest correction