Oops, an error
Loading. Please wait.

Closer To The Edge Tab

version 2
version 2

Whole song

Interactive

63,981 views 27 this week
1 commentread comment
1 2 3 4 5
x 18
add to favorites
launch autoscroll
font size
0
reset
how to read this tab
guitar tuner
Autoscroll
slow
fast
+/-
esc
set tempo
stop
Help us to improve Ultimate-Guitar.com Take our survey!
×
Standard Tuning
Intro (it's all synth but here's what i think the chords are.  Can either
strum a rhythm to it or let it ring)
e-2~--6~--------------|
b-2~--6~--8~--6~--4~--|
g-3~--7~--8~--6~--4~--|
d-4~--8~--8~--6~--4~--|
a-4~--8~--6~--4~--2~--|
e-2~--6~--------------|

Rhythm (Intro/Chorus) Palm Mute for Verses
e------------------------------------------------------------------|
b------------------------------------------------------------------|
g--------------------------------88888888-66666666-444444444444444-|
d-444444444444444-88888888888888-88888888-66666666-444444444444444-|
a-444444444444444-88888888888888-66666666-44444444-222222222222222-|
e-222222222222222-66666666666666-----------------------------------|

Lead
Verse (Starts at 0:42)
e-------6---------------------------------------------6-----------|
b---7-9---7------------7-9~-----7-9~-----7-9~-----7-9---7---------|
g-6---------8-6-8~---6--------6--------6--------6---------8-6-8~--|
d-----------------------------------------------------------------|
a-----------------------------------------------------------------|
e-----------------------------------------------------------------|

Chorus (It's incredibly hard to hear.  But I usually fiddle around with
this)
e------------------------------------------------------------|
b---7---9-9-9-9----7---9-9-9-9----7---9-9-9-9----7---9-9-9-9-|
g-6---6----------6---6----------6---6----------6---6---------|
d------------------------------------------------------------|
a------------------------------------------------------------|
e------------------------------------------------------------|

e-------6-6-6-6----------------------------------------------|
b-7-9-7------------7---9-9-9-9----7---9-9-9-9----7---9-9-9-9-|
g----------------6---6----------6---6----------6---6---------|
d------------------------------------------------------------|
a------------------------------------------------------------|
e------------------------------------------------------------|

Bridge
Rhythm and Lead
e------------------------------------------------------------|
b-11-11-11-11------------11-11-11-11------------11-11-11-11--|
g-11-11-11-11---10-10-10-11-11-11-11---10-10-10-11-11-11-11--|
d-11-11-11-11---11-11-11-11-11-11-11---11-11-11-11-11-11-11--|
a--9--9--9--9---11-11-11--9--9--9--9---11-11-11--9--9--9--9--|
e----------------9--9--9----------------9--9--9--------------|

e----------------------------------------|
b----------------------------------------|
g-10-10-10-10--8-8-8-8-8-10-10-10-10-10--|
d-11-11-11-11--9-9-9-9-9-11-11-11-11-11--|
a-11-11-11-11--9-9-9-9-9-11-11-11-11-11--|
e--9--9--9--9--7-7-7-7-7--9--9--9--9--9--|

Lead Guitar (Hard to hear its part underneath rhythm)
e-9-------9-------9----|
b---11------11---------|
g------11------11---11-| 
d----------------------| repeat
a----------------------|
e----------------------|

Final Pre-Chorus
e----------6-|
b-6--7--9----|
g------------| 2x
d------------|
a------------|
e------------|

Final Chorus
Rhythm Plays chorus

Lead plays this midway towards end
e-14-14-14-13-13-13-13-13-14-14-14-16-16-16-16-16-16-|
b----------------------------------------------------|
g----------------------------------------------------|
d----------------------------------------------------|
a----------------------------------------------------|
e----------------------------------------------------|
Suggest correction
comments
print report bad tab
1 comment total.
+1 reply
Audio84ave 213 Nov 29, 2010 02:21 PM

Pretty good! To my ears though it doesnt sound as if he´d play the lower tones during the bridge, or rather to be more specific, like this:

Bridge
(Both Guitars)
e-----------------------------------------|
b-7-7-7-7---6-6-6-7-7-7-7---6-6-6-7-7-7-7-|
g-6-6-6-6---6-6-6-6-6-6-6---6-6-6-6-6-6-6-|
d-4-4-4-4---4-4-4-4-4-4-4---4-4-4-4-4-4-4—|
a-----------------------------------------|
e-----------------------------------------|

e--------------------------|
b--------------------------|
g-6-6-6-6—-4-4-4-4-6-6-6-6-|
d-6-6-6-6--4-4-4-4-6-6-6-6-|
a-4-4-4-4--4-4-4-4-4-4-4-4-|
e--------------------------|

just a little hair-splitting comment of mine ;-)

guest
You may want to rate the tab now too:
select rating
Wanna post a correction for this tab? Suggest correction