Oops, an error
Loading. Please wait.

Closer To The Edge Chords

version 5
version 5

Interactive

13,188 views 12 this week
no commentswrite comment
1 2 3 4 5
x 10
add to favorites
launch autoscroll
font size
0
reset
transpose
0
reset
display chords
guitar tuner
Autoscroll
slow
fast
+/-
esc
set tempo
stop
Help us to improve Ultimate-Guitar.com Take our survey!
×
Author
Difficulty
Tuning
novice
D A D G B E
-------------------------------------------------------------------------------
                                     Closer To The Edge - 30 Seconds To Mars
-------------------------------------------------------------------------------
Tabbed by: paramore8793
E-mail: sam_parawhore@hotmail.com

Tuning: Drop D

Chords (Power Chords):
        F   A   D   C   Bb
   e|---x---x---x---x---x---|
   B|---x---x---x---x---x---|
   G|---x---x---7---5---3---|
   D|---3---7---7---5---3---|
   A|---3---7---5---3---1---|
   E|---1---5---x---x---x---|


*Palm Muted

        F       
*I don't remember one moment I tried to forget

        A
I lost myself yet I'm better not sad

        D      C       Bb
Now I'm closer to the edge*


       F
*It was a thousand to one and a million to two

       A                                 
Time to go down in flames and I'm taking you

D       C     Bb
Closer to the edge*


       F          A
No I'm not saying I'm sorry

    D         C      Bb
One day, maybe we'll meet again

      F            A
No I'm not saying I'm sorry

     D       C       Bb
One day, maybe we'll meet again


No, no, no, no


- F - A - D - C - Bb -


         F
*Can you imagine a time when the truth ran free

        A
A birth of a song, a death of a dream

D       C     Bb
Closer to the edge

       F                 A
This never ending story, paid for with pride and fate

D                C          Bb
We all fall short of glory, lost in ourselves*



       F          A
No I'm not saying I'm sorry

    D         C      Bb
One day, maybe we'll meet again

      F            A
No I'm not saying I'm sorry

     D       C       Bb
One day, maybe we'll meet again


No, no, no, no


(Repite as much as necesary)
e|---------------------------------------------------------------------------|
B|--5-5-5/-6-6-6-6-----6/5-5-5--5---3----------------------------------------|
G|--5-5-5--5-5-5-5(x3)-3-3-3-3--3---3(x12)-----------------------------------|
D|--3-3-3--3-3-3-3-----3-3-3-3--3---3----------------------------------------|
A|---------------------------------------------------------------------------|
E|---------------------------------------------------------------------------|

No, no, no, no
I will never forget
No, no
I will never regret
No, no
I will live my life
No, no, no, no
I will never forget
No, no
I will never regret
No, no
I will live my life



       F          A
No I'm not saying I'm sorry

    D         C      Bb
One day, maybe we'll meet again

      F            A
No I'm not saying I'm sorry

     D       C       Bb
One day, maybe we'll meet again

No, no, no, no


F             A
Closer to the edge

F             A
Closer to the edge

No, no, no, no

F             A
Closer to the edge

F             A      F (hold)
Closer to the edge

No, no, no, no


D      C      Bb
Closer to the edge


************************************

| /   slide up
| \   slide down
| H   hammer-on
| p   pull-off
| ~   vibrato
| +   harmonic
| x   Mute note
| B   Bend
| pb  Pre-bend
| br  Bend release
| pbr Pre-bend release
| brb Bend release bend

************************************
Suggest correction
comments
print report bad tab
guest
You may want to rate the tab now too:
select rating
Wanna post a correction for this tab? Suggest correction