Oops, an error
Loading. Please wait.

Conquistador bass

version 1
version 1

Whole song

Interactive

2,381 views 3 this week
no commentswrite comment
1 2 3 4 5
1 last vote to show rating
add to favorites
×
Save as Personal and add changes to this tab that will be seen only by you. Learn more ›
×
You can save this tab as Personal to edit and correct it or add notes. All changes will be seen only by you. Learn more »
launch autoscroll
font size
0
reset
guitar tuner
edit
Autoscroll
slow
fast
+/-
esc
set tempo
stop
-------------------------------------------------------------------------------
                             conquistador - 30 seconds to mars
-------------------------------------------------------------------------------
Tabbed by: frankbasscover
Youtube Channel : http://www.youtube.com/user/FrankBassCover

WATCH MY COVER FOR HELP : http://www.youtube.com/watch?
v=YnZUazEZupA&list=UU0QBLmt1YPXQVUMuYfIfsNg&index=2
Tuning: Half step Down 

intro 
G|------------------------------------|
D|---2---2----0-2-7-5---2---2---0-2---|
A|----------------------------------2-|
E|-0---0---0----------0---0---0-------|x2

verse ( bass don't play in the song this part , but you can play this : 
G|---------------------------------|
D|-2----5------------2---5-------7-|
A|----------3----3-----------3-----|
E|---------------------------------|

G|--------------------------------------------|
D|-2----5------------2---5-------7-7-7-7-7-7/-|
A|----------3----0-----------3----------------|
E|--------------------------------------------|
Chords are : Em G C / Em G C Am / Em G C Am / Em G C G A

chorus
G|-----------------------------------------------------|
D|-----------------------------------------------------|
A|-14/-2-2-2-2-14/-2-2-2-2-14/-2-2-2-2-5-5-5-5-7-7-7-7-|
E|-----------------------------------------------------|x2

repeat verse 
chords are : Em G C / Em G C Am / Em G C Am / Em G C G A
i've improvised a slap part here with this chords . watch my video for help ;) 
http://www.youtube.com/watch?v=YnZUazEZupA&list=UU0QBLmt1YPXQVUMuYfIfsNg&index=2

repeat chorus x2

Post chorus
G|----------------------------------------------|
D|----------------------------------------------|
A|-3-3-3-3-3-3-3-3-5-5-5------------------------|
E|-----------------------5-5-5-5-5-5-5-5-3-3-3--|
post chorus 2
G|-------------------------------------------------|
D|-------------------------------------7-7-7-7-7/2-|
A|-3-3-3-3-3-3-3-3-5-5-5-0-0-0-0-0-0-0-------------|
E|-------------------------------------------------|

interlude ( optional )
G|------------------------------------|
D|-2--2--2--2--2--2--2--2--2--2--2--2-|
A|------------------------------------|
E|-0--0--0--0--0--0--0--0--0--0--0--0-|

chorus x 3
post chorus 2

thanks for using my tab ;)
-Frank

| /  slide up
| \  slide down
| h  hammer-on
| p  pull-off
| ~  vibrato
| +  harmonic
| x  Mute note
===============================================================================

            
            
Suggest correction
Creating personal tab
Creating personal tab
You can edit any tab online and save it as your Personal.

You can edit, replace or remove any tab part or add personal notes – all changes will be seen only by you.

Personal tabs can be accessed anytime from any device, even offline.
Learn more »
Give kudos to tab author, rate the tab!
1 2 3 4 5
comments
print report bad tab
guest
You may want to rate the tab now too:
select rating
Wanna post a correction for this tab? Suggest correction