Oops, an error
Loading. Please wait.

Conquistador tab

version 4
version 4

Interactive

379 views 1 this week
1 commentread comment
1 2 3 4 5
3 more votes to show rating
add to favorites
×
Save as Personal and add changes to this tab that will be seen only by you. Learn more ›
×
You can save this tab as Personal to edit and correct it or add notes. All changes will be seen only by you. Learn more »
launch autoscroll
font size
0
reset
how to read this tab
guitar tuner
edit
Autoscroll
slow
fast
+/-
esc
set tempo
stop
Author
Difficulty
-----------------------------------------------------------------------------
                      CONQUISTADOR - 30 SECONDS TO MARS
-----------------------------------------------------------------------------
Tabbed by: Cait :) monthebiffy97
E-mail: monthebiffy97@gmail.com



Tuning: D# A# D# G# B# E# (Half step up then Drop D#)
   Intro / Main Riff :
E#|-------------------------------------------------------------------|
B#|-------------------------------------------------------------------|
G#|-------------------------------------------------------------------|
D#|-14\\\-------------------------------------------------------------| x2
A#|-14\\\-------------------------------------------------------------|
D#|-14\\\----0-12-0-12-0--10--12--17--15----0-12-0-12-0--10--12\\-3---|
   

   Verse1: 0:14 - 0:43
   No guitar although could palm mute the piano chords:

E#|----------------------------|
B#|----------------------------|
G#|----------------------------|
D#|--0--3--8----0--3--8--5-----| x2 
A#|--0--3--8----0--3--8--5-----|
D#|--0--3--8----0--3--8--5-----|


      Chorus 0:43 - 0:58
E#|-----------------------------------------------------|
B#|-----------------------------------------------------|
G#|-----------------------------------------------------|
D#|--333-555----12\\\-0--12\\\-0--12\\\-0---333-555-----| x2
A#|--333-555----12\\\-0--12\\\-0--12\\\-0---333-555-----|
D#|--333-555----12\\\-0--12\\\-0--12\\\-0---333-555-----|

   
    Verse2: 0:58 - 1:26
E#|----------------------------|
B#|----------------------------|
G#|----------------------------|
D#|--0--3--8----0--3--8--5-----| x2 
A#|--0--3--8----0--3--8--5-----|
D#|--0--3--8----0--3--8--5-----|

    
E#|-----------------------------------------------------|
B#|-----------------------------------------------------|
G#|-----------------------------------------------------|
D#|--333-555----12\\\-0--12\\\-0--12\\\-0---333-555-----| x2
A#|--333-555----12\\\-0--12\\\-0--12\\\-0---333-555-----|
D#|--333-555----12\\\-0--12\\\-0--12\\\-0---333-555-----|

    1:43 - 1:57
E#|--------------------------|
B#|--------------------------|
G#|--------------------------|
D#|--8--10--5------333-555---|
A#|--8--10--5--x2--333-555---|
D#|--8--10--5------333-555---|

 Main Riff : 1:57 - 2:39
E#|-------------------------------------------------------------------|
B#|-------------------------------------------------------------------|
G#|-------------------------------------------------------------------|
D#|-14\\\-------------------------------------------------------------| x6
A#|-14\\\-------------------------------------------------------------|
D#|-14\\\----0-12-0-12-0--10--12--17--15----0-12-0-12-0--10--12\\-3---|

    
  "We will,we will,we will rise again" 2:39 - 3:00
E#|----------------------------------------------|
B#|----------------------------------------------|
G#|----------------------------------------------|
D#|------12\\\-0--12\\\-0--12\\\-0---333-555-----| x3
A#|------12\\\-0--12\\\-0--12\\\-0---333-555-----|
D#|------12\\\-0--12\\\-0--12\\\-0---333-555-----|

   "Hey,hey say your prayers" 3:00 - 3:06
E#|------------------------|
B#|------------------------|
G#|------------------------|
D#|--8--10--5----333-555---|
A#|--8--10--5----333-555---|
D#|--8--10--5----333-555---|

Outro Riff:

E#|-----------------------------------|
B#|-----------------------------------|
G#|-----------------------------------|
D#|-----0-12-0-12-0--10--12--17--15---|
A#|-----0-12-0-12-0--10--12--17--15---|
D#|-----0-12-0-12-0--10--12--17--15---|
 

************************************

| /   slide up
| \   slide down
| h   hammer-on
| p   pull-off
| ~   vibrato
| +   harmonic
| x   Mute note
| b   Bend
| pb  Pre-bend
| br  Bend release
| pbr Pre-bend release
| brb Bend release bend

************************************

            
            
Suggest correction
Creating personal tab
Creating personal tab
You can edit any tab online and save it as your Personal.

You can edit, replace or remove any tab part or add personal notes – all changes will be seen only by you.

Personal tabs can be accessed anytime from any device, even offline.
Learn more »
Give kudos to tab author, rate the tab!
1 2 3 4 5
comments
print report bad tab
1 comment total.
0 reply
galva94 453 Sep 04, 2013 04:33 AM

The main riff is only played on the E chord, without power chords.

guest
You may want to rate the tab now too:
select rating
Wanna post a correction for this tab? Suggest correction