Oops, an error
Loading. Please wait.

Fantasy Bass Tab

version 1
version 1

Whole song

Interactive

11,085 views 3 this week
6 commentsread comments
1 2 3 4 5
x 8
add to favorites
launch autoscroll
font size
0
reset
guitar tuner
Autoscroll
slow
fast
+/-
esc
set tempo
stop
Help us to improve Ultimate-Guitar.com Take our survey!
×
Author
Difficulty
Tuning
novice
D A D G B E
---------------------------------------------------------------------------
			     The Fantasy - 30 Seconds To Mars
----------------------------------------------------------------------------

Tabbed By : blakplague215

Tuning: DADG

Guitar for 4 bars, then:
G|-------------------------------------------------------|
D|-------------------------------------------------------|
A|-------------------------------------------------------|
D|-66--66--22--22--11--11--11--11--66--66--22--22--11--11|

Verse:
G|---------------------------------------------------------------|
D|---------------------------------------------------------------|
A|---------------------------------------------------------------|
D|6666-66-2222-22-1111-11-1111-11-6666-66-2222-22-1111-11-111-111|

Chorus:
G|-----------------------------------------------------|
D|-----------------------------------------------------|
A|-2222-22-4444-44-6666-66-6666-66\2222-22-4444-44-6666|
D|-----------------------------------------------------|

Post-Chorus:
G|-------------------------------------------------------|
D|-------------------------------------------------------|
A|-------------------------------------------------------|
D|-66--66--22--22--11--11--11--11--66--66--22--22--11--11|

Verse:
G|---------------------------------------------------------------|
D|---------------------------------------------------------------|
A|---------------------------------------------------------------|
D|6666-66-2222-22-1111-11-1111-11-6666-66-2222-22-1111-11-111-111| X2

Chorus:
G|-----------------------------------------------------|
D|-----------------------------------------------------|
A|-2222-22-4444-44-6666-66-6666-66\2222-22-4444-44-6666|
D|-----------------------------------------------------| X2

Post-Chorus 2:
G|-----------------|
D|-----------------|
A|22---44---66---66|
D|-----------------|

G|-----------------------------------|
D|-----------------------------------|
A|22---44---6666---6666---6666---6666|
D|-----------------------------------|

Bridge:
G|------------------------------|
D|------------------------------|
A|------------------------------|
D|6~--2~--1~--------6~--9~--1~--| X3

No Bass

G|--------------------------------|
D|--------------------------------|
A|----------------2~--------------|
D|1~------------------------------| X4

Rest More

Chorus:
G|-----------------------------------------------------|
D|-----------------------------------------------------|
A|-2222-22-4444-44-6666-66-6666-66\2222-22-4444-44-6666|
D|-----------------------------------------------------|  X2

G|------------------|
D|------------------|
A|-22---44----------|
D|-----------11---11| X3

G|-------------------------------------------------------------------------|
D|-------------------------------------------------------------------------|
A|-22---44-----------------------------------------------------------------|
D|-----------8668--8888668-8888668-8888668-8888668-8888668-8888668-8888668-|


| /  slide up
| \  slide down
| h  hammer-on
| p  pull-off
| ~  vibrato
| +  harmonic
| x  Mute note
============================================================================
Suggest correction
comments
print report bad tab
6 comments total. Showing first comments.
+1 reply
A Modern Myth 149 May 01, 2007 09:01 AM

Shame about the lack of the intro being tabbed out.

Other than that, its okay.

0 reply
bassplayer27 312 Sep 29, 2007 07:45 PM

into's like this..... easy enough you should have put it in there!
-----8------4-----3----
---6------2-----1------
-----------------------
66-----22-----11-------

0 reply
bassplayer27 312 Sep 29, 2007 07:51 PM

And for the verse id say do it like this...
-------------------------
-----66----22----1111----
-------------------------
--666---222---111--------

and so on....

guest
You may want to rate the tab now too:
select rating
Wanna post a correction for this tab? Suggest correction