Oops, an error
Loading. Please wait.

Fantasy Bass Tab

version 2
version 2

Whole song

Interactive

7,109 views 18 this week
no commentswrite comment
1 2 3 4 5
excellent!
x 6
add to favorites
launch autoscroll
font size
0
reset
guitar tuner
Autoscroll
slow
fast
+/-
esc
set tempo
stop
Help us to improve Ultimate-Guitar.com Take our survey!
×
Author
Difficulty
Tuning
intermediate
D A D G B E
Tabbed By : 
e-mail: 

Tuning: Drop D

Intro
G|-------8-|-------4-|-------3-|---------|
D|-----6---|-----2---|-----1---|---------|
A|---6-----|---2-----|---1-----|---------|
D|-6-------|-2-------|-1-------|---------|

G|-------8-|-------4-|---------|---------|
D|-----6---|-----2---|---------|---------|
A|---6-----|---2-----|---------|---------|
D|-6-------|-2-------|-1~------|---------|

Verse 1
G|----8----8-|----4----4-|----3----3-|----3----3-|
D|-----------|-----------|-----------|-----------|
A|-----------|-----------|-----------|-----------|
D|-66---66---|-22---22---|-11---11---|-11---11---|

G|----8----8-|----4----4-|----3----3-|-----------|
D|-----------|-----------|-----------|-----------|
A|-----------|-----------|-----------|-----------|
D|-66---66---|-22---22---|-11---11---|-1~--------|

G|----8----8-|----4----4-|----3----3-|----3----3-|
D|-----------|-----------|-----------|-----------|
A|-----------|-----------|-----------|-----------|
D|-66---66---|-22---22---|-11---11---|-11---11---|

G|----8----8-|----4----4-|----3----3-|-----------|
D|-----------|-----------|-----------|-----------|
A|-----------|-----------|-----------|-777777-6--|
D|-66---66---|-22---22---|-11---11---|-----------|

G|----8----8-|----4----4-|----3----3-|----3----3-|
D|-----------|-----------|-----------|-----------|
A|-----------|-----------|-----------|-----------|
D|-66---66---|-22---22---|-11---11---|-11---11---|

G|----8----8-|----4----4-|----3----3-|----3----3-|
D|-----------|-----------|-----------|-----------|
A|-----------|-----------|-----------|-----------|
D|-66---66---|-22---22---|-11---11---|-11---11---|

Chorus 1
G|--------|---------|--------|---------------|
D|--------|---------|--------|----6h8p6------|
A|-2-2-22-|-4--4-44-|-6-6-66-|-6h8-----8p6-4-|
D|--------|---------|--------|---------------|

G|--------|---------|--------|----------|
D|--------|---------|--------|----------|
A|-2-2-22-|-4--4-44-|-6-6-66-|-6666-6-6-|
D|--------|---------|--------|----------|

Verse 2
G|----8----8-|----4----4-|----3----3-|----3----3-|
D|-----------|-----------|-----------|-----------|
A|-----------|-----------|-----------|-----------|
D|-66---66---|-22---22---|-11---11---|-11---11---|

G|----8----8-|----4----4-|----3----3-|-----------|
D|-----------|-----------|-----------|-----------|
A|-----------|-----------|-----------|-----------|
D|-66---66---|-22---22---|-11---11---|-1~--------|

G|----8----8-|----4----4-|----3----3-|----3----3-|
D|-----------|-----------|-----------|-----------|
A|-----------|-----------|-----------|-----------|
D|-66---66---|-22---22---|-11---11---|-11---11---|

G|----8----8-|----4----4-|----3----3-|-----------|
D|-----------|-----------|-----------|-----------|
A|-----------|-----------|-----------|-777777-6--|
D|-66---66---|-22---22---|-11---11---|-----------|

G|----8----8-|----4----4-|----3----3-|----3----3-|
D|-----------|-----------|-----------|-----------|
A|-----------|-----------|-----------|-----------|
D|-66---66---|-22---22---|-11---11---|-11---11---|

G|----8----8-|----4----4-|----3----3-|----3----3-|
D|-----------|-----------|-----------|-----------|
A|-----------|-----------|-----------|-----------|
D|-66---66---|-22---22---|-11---11---|-11---11---|

Chorus 2
G|--------|---------|--------|---------------|
D|--------|---------|--------|----6h8p6------|
A|-2-2-22-|-4--4-44-|-6-6-66-|-6h8-----8p6-4-|
D|--------|---------|--------|---------------|

G|--------|---------|--------|----------|
D|--------|---------|--------|----------|
A|-2-2-22-|-4--4-44-|-6-6-66-|-6666-6-6-|
D|--------|---------|--------|----------|

G|---|---|-------|---|---|---|--------|---------|----|
D|---|---|-------|---|---|---|--------|---------|----|
A|-2~|-4~|-666-66|-2~|444|666|666-6666|-666-6666|-666|
D|---|---|-------|---|---|---|--------|---------|----|

Breakdown
G|----|----|----|----|----|----|----|----|
D|----|----|----|----|----|----|----|----|
A|----|----|----|----|----|----|----|----|
D|-6~-|-2~-|-1~-|----|-6~-|-9~-|-1~-|----|

G|----|----|----|----|----|----|----|----|
D|----|----|----|----|----|----|----|----|
A|----|----|----|----|----|----|----|----|
D|-6~-|-2~-|-1~-|----|-6~-|-9~-|-1~-|----|

G|----|----|----|----|----|----|----|----|
D|----|----|----|----|----|----|----|----|
A|----|----|----|----|----|----|----|----|
D|-6~-|-2~-|-1~-|----|-6~-|-9~-|-1~-|----|

(pause while guitar plays then...)

G|----|----|----|----|----|----|----|----|
D|----|----|----|----|----|----|----|----|
A|-6~-|----|-2~-|----|-6~-|----|-2~-|----|
D|----|----|----|----|----|----|----|----|

G|----|----|----|----|----|----|----|----|
D|----|----|----|----|----|----|----|----|
A|6666|6666|2222|2222|6666|6666|2222|/14~|
D|----|----|----|----|----|----|----|----|

Do you live, do you die...
G|--------|---------|--------|---------|
D|-----8--|-----4---|-----8--|-----8---|
A|--------|---------|--------|---------|
D|-9-6----|-4-2-----|-9-6----|-4-2-----|

G|--------|---------|--------|---------|
D|-----8--|-----4---|-----8--|-----8---|
A|--------|---------|--------|---------|
D|-9-6----|-4-2-----|-9-6----|-4-2-----|

Chorus 3
G|--------|---------|--------|---------------|
D|--------|---------|--------|----6h8p6------|
A|-2-2-22-|-4--4-44-|-6-6-66-|-6h8-----8p6-4-|
D|--------|---------|--------|---------------|

G|--------|---------|--------|----------|
D|--------|---------|--------|----------|
A|-2-2-22-|-4--4-44-|-6-6-66-|-6666-6-6-|
D|--------|---------|--------|----------|

G|--------|---------|--------|----------|
D|--------|---------|--------|----------|
A|-2-2-22-|-4--4-44-|-6-6-66-|-6666-6-6-|
D|--------|---------|--------|----------|

G|--------|---------|--------|----------|
D|--------|---------|--------|----------|
A|-2-2-22-|-4--4-44-|-6-6-66-|-6666-6-6-|
D|--------|---------|--------|----------|

G|---|---|-------|---|---|---|
D|---|---|-------|---|---|---|
A|-2~|-4~|-666-66|-2~|-4~|-66|
D|---|---|-------|---|---|---|

G|---|---|-------|---|---|
D|---|---|-------|---|---|
A|-2~|-4~|-666-66|-2~|-4~|
D|---|---|-------|---|---|

G|-------|---------|---------|----------|---------|---------|
D|-------|---------|---------|----------|---------|---------|
A|-6666--|-6666666-|-6666666-|-44h66666-|-6664h666|-6666666-|
D|-------|---------|---------|----------|---------|---------|

G|-------|-------|
D|-------|-------|
A|6666666|6666666|
D|-------|-------|


| /  slide up
| \  slide down
| h  hammer-on
| p  pull-off
| ~  vibrato
| +  harmonic
| x  Mute note
===============================================================================
Suggest correction
comments
print report bad tab
guest
You may want to rate the tab now too:
select rating
Wanna post a correction for this tab? Suggest correction