Oops, an error
Loading. Please wait.

Fantasy Tab

version 4
version 4

Whole song

Interactive

1,090 views 1 this week
no commentswrite comment
1 2 3 4 5
please rate
add to favorites
launch autoscroll
font size
0
reset
how to read this tab
guitar tuner
Tab Pro tools
  • play this tab
  • loop segment
  • change instrument
  • show fretboard
  • metronome
×
Best way to learn
"Fantasy"
Autoscroll
slow
fast
+/-
esc
set tempo
stop
Contributor
Intro Riff:
e |---------------------------------------------------------------------------|
B |---------------------------------------------------------------------------|
G |---------------------------------------------------------------------------|
D |---------------------------------------------------------------------------|
A |-13-13-13-13-13-13-13--11-11-11-11-13-14-13--8-8-9--9-9-11--11-11-9--9-9-8-|
E |---------------------------------------------------------------------------|

e |--------------------------------------------------------------------------|
B |--------------------------------------------------------------------------|
G |--------------------------------------------------------------------------|
D |--------------------------------------------------------------------------|
A |-13-13-13-13-13-13-13--11-11-11-11-13-14-13--8-8-9--9-9-11----------------|
E |--------------------------------------------------------------------------|


The little strumming bit in Verse 1:

e |---------------------------------------------------------|
B |---------------------------------------------------------|
G |---------------------------------------------------------|
D |-11-11-11-11-11-11---------------------------------------|
A |-11-11-11-11-11-11---------------------------------------|
E |--9--9--9--9--9--9---------------------------------------|




  |Pre-Chorus:         | Chorus 1:  x2
e |--------------------|------------------------------------------------------------------------|
B |--------------------|------------------------------------------------------------------------|
G |--------------------|------------------------------------------------------------------------|
D |-8--8--8--8---------|----9-9-9-9-9-9-9-9--11-11-11-11-11-11-11-11--13-13-13-13-13-13-13-13---|
A |-8--8--8--8---------|----9-9-9-9-9-9-9-9--11-11-11-11-11-11-11-11--13-13-13-13-13-13-13-13---|
E |-6--6--6--6---------|----7-7-7-7-7-7-7-7---9--9--9--9--9--9--9--9--11-11-11-11-11-11-11-11---|


Intro Riff Again:
e |---------------------------------------------------------------------------|
B |---------------------------------------------------------------------------|
G |---------------------------------------------------------------------------|
D |---------------------------------------------------------------------------|
A |-13-13-13-13-13-13-13--11-11-11-11-13-14-13--8-8-9--9-9-11--11-11-9--9-9-8-|
E |---------------------------------------------------------------------------|

e |--------------------------------------------------------------------------|
B |--------------------------------------------------------------------------|
G |--------------------------------------------------------------------------|
D |--------------------------------------------------------------------------|
A |-13-13-13-13-13-13-13--11-11-11-11-13-14-13--8-8-9--9-9-11----------------|
E |--------------------------------------------------------------------------|


The little strumming bit again in Verse 2:

e |---------------------------------------------------------|
B |---------------------------------------------------------|
G |---------------------------------------------------------|
D |-11-11-11-11-11-11---------------------------------------|
A |-11-11-11-11-11-11---------------------------------------|
E |--9--9--9--9--9--9---------------------------------------|


  |Pre-Chorus:         | Chorus 2:  x2
e |--------------------|------------------------------------------------------------------------|
B |--------------------|------------------------------------------------------------------------|
G |--------------------|------------------------------------------------------------------------|
D |-8--8--8--8---------|----9-9-9-9-9-9-9-9--11-11-11-11-11-11-11-11--13-13-13-13-13-13-13-13---|
A |-8--8--8--8---------|----9-9-9-9-9-9-9-9--11-11-11-11-11-11-11-11--13-13-13-13-13-13-13-13---|
E |-6--6--6--6---------|----7-7-7-7-7-7-7-7---9--9--9--9--9--9--9--9--11-11-11-11-11-11-11-11---|


e |---------------|
B |---------------|
G |---------------|
D |--9--11--13----|
A |--9--11--13----|
E |--7---9--11----|

e|-------------------------------------------------------------------------------------------------|
B|-------------------------------------------------------------------------------------------------|
G|-------------------------------------------------------------------------------------------------|
D|-9---11---13-13-13-13--13-13-13-13-13-13-13--13-13-13-13-13-13-13--13-13-13-13-15-15-15-15-16-16-|
A|-9---11---13-13-13-13--13-13-13-13-13-13-13--13-13-13-13-13-13-13--13-13-13-13-15-15-15-15-16-16-|
E|-7----9---11-11-11-11--11-11-11-11-11-11-11--11-11-11-11-11-11-11--11-11-11-11-13-13-13-13-14-14-|

*bass guitar*



Pre-Bridge:

Strum these like in the song..
e |-------------------------------------------|
B |-------------------------------------------|
G |-----------------------8-------------------|
D |-9--11--13------9--11--8-------------------|
A |-9--11--13------9--11--6-------------------|
E |-7---9--11------7---9----------------------|



Bride:

   x3                       | x1
e |-------------------------|--------------------------------|
B |-------------------------|--------------------------------|
G |-------------------------|--------------------------------|
D |-13--15---16---16-16-16--|-13-15-11-----------------------|
A |-13--15---16---16-16-16--|-13-15-11-----------------------|
E |-11--13---14---14-14-14--|-11-13--9-----------------------|


   x3                       | x1
e |-------------------------|--------------------------------|
B |-------------------------|--------------------------------|
G |-------------------------|--------------------------------|
D |-13--15---16---16-16-16--|-13-15-15-----------------------|
A |-13--15---16---16-16-16--|-13-15-15-----------------------|
E |-11--13---14---14-14-14--|-11-13-13-----------------------|


Pre Chorus:
e |-------------------------|-------------------------|
B |--x3---------------------|---x1--------------------|
G |-------------------------|-------------------------|
D |-------------------------|-------------------------|
A |-------------------------|-------------------------|
E |-14-14--13-13--7-7--6-6--|-14-14--13-13--7-7-7~----|


Chorus 3:  x8
e |------------------------------------------------------------------------|
B |------------------------------------------------------------------------|
G |------------------------------------------------------------------------|
D |----9-9-9-9-9-9-9-9--11-11-11-11-11-11-11-11--13-13-13-13-13-13-13-13---|
A |----9-9-9-9-9-9-9-9--11-11-11-11-11-11-11-11--13-13-13-13-13-13-13-13---|
E |----7-7-7-7-7-7-7-7---9--9--9--9--9--9--9--9--11-11-11-11-11-11-11-11---|

End on..

e |------------------------|
B |------------------------|
G |------------------------|
D |-13-13-13--15-15-15-15--|
A |-13-13-13--15-15-15-15--|
E |-11-11-11--13-13-13-13--|
comments
We did not receive enough feedback on this tab! Please rate:
print report bad tab
1 2 3 4 5
I want to post or [tab]
guest
You may want to rate the tab now too:
select rating
Please do not post tabs as comments. Select "correction" instead!