Oops, an error
Loading. Please wait.

From Yesterday Tab

version 2
24,114 views 1 this week
6 commentsread comments
1 2 3 4 5
accurate
x 7
add to favorites
launch autoscroll
font size
0
reset
how to read this tab
guitar tuner
Autoscroll
slow
fast
+/-
esc
set tempo
stop
Help us to improve Ultimate-Guitar.com Take our survey!
×
Author
Difficulty
novice
30 Seconds To Mars
From Yesterday
A Beautiful Lie

Originally Tabbed by:X6heretic6bob6x
Transposed By: RsEagle27

All credit goes to X6heretic6bob6x for the tab.  I just transposed it into standard 
for those who are too lazy to do it themselves, or for those who don’t know how to transpose it.

Standard Tuning

Intro: (Delay/chorus type of effect)
Piano fades into guitar (0:18) (Repeat until Chorus)
e|----------|----------------------------------------------------|
B|--p-------|----------------------------------------------------|
G|--i-------|----------------------------------------------------|
D|--a--Then-|-----8----8----8----8----8----8----8----8----8----8-|
A|--n-------|--666--666--666--666--666--555--555--555--555--555--|
E|--o-------|----------------------------------------------------|

Chorus:(1:01) 2x
         A#5               F5              G5               D#5
e|---------------------------------------------------------------------|
B|---------------------------------------------------------------------|
G|----------------------------------------------------8888888888888888-|
D|-8888888888888888-3333333333333333-5555555555555555-8888888888888888-|
A|-8888888888888888-3333333333333333-5555555555555555-6666666666666666-|
E|-6666666666666666-1111111111111111-3333333333333333------------------|

Verse (1:31) 2x
e|----------------------------------------------------|
B|----------------------------------------------------|
G|----------------------------------------------------|
D|-----8----8----8----8----8----8----8----8----8----8-|
A|--666--666--666--666--666--555--555--555--555--555--|
E|----------------------------------------------------|

After Verse (1:45) 2x
e|-------------------------------------------------|
B|-------------------------------------------------|
G|-------------------------------------------------|
D|-------------------------------------------------|
A|-6-6-6-6-6-6--6-6-6-6-6~-5-5-5-5-5-5--5-5-5-5-6~-|
E|-------------------------------------------------|
PM . . . . . .  . . . .    . . . . . .  . . . .

Chorus (2:00)
         A#5               F5              G5               D#5
e|---------------------------------------------------------------------|
B|---------------------------------------------------------------------|
G|----------------------------------------------------8888888888888888-|
D|-8888888888888888-3333333333333333-5555555555555555-8888888888888888-|
A|-8888888888888888-3333333333333333-5555555555555555-6666666666666666-|
E|-6666666666666666-1111111111111111-3333333333333333------------------|

Bridge (2:28)
     F5
E|-------------------------------------------------|
B|-------------------------------------------------|
G|-10-10-10-10-10-10-10-10-10-10-10-10-10-10-10-10-|
D|--x-—x--x—-x--x--x--x--x--x--x--x--x--x--x--x--x-|
A|--8—-8--8—-8--8--8--8--8--8--8--8--8--8--8--8--8-|
E|-------------------------------------------------|


E|---------------------------------------------|
B|---------------------------------------------|
G|------7-7-8-10—-7-7-7-7--8-10-------8-8—-7-7-|
D|-8-8—-x-x-x-x---x-x-x-x--x-x---8-8—-x-x—-x-x-|
A|-8-8—-5-5-6-8---5-5-5-5--6-8---8-8—-6-6—-5-5-|
E|-6-6---------------------------6-6-----------|
 |                                           3x|

E|------------------------------------------------------|
B|------------------------------------------------------|
G|------7-7--8-10—10-10-10-10-10-10-10---12-12-12-12-12-|
D|-8-8—-x-x--x-x---x--x--x--x--x--x--x----x--x--x--x--x-|
A|-8-8—-5-5--6-8---8--8--8--8--8--8--8---10-10-10-10-10-|
E|-6-6--------------------------------------------------|

Chorus (3:00) 4x
         A#5               F5              G5               D#5
e|---------------------------------------------------------------------|
B|---------------------------------------------------------------------|
G|----------------------------------------------------8888888888888888-|
D|-8888888888888888-3333333333333333-5555555555555555-8888888888888888-|
A|-8888888888888888-3333333333333333-5555555555555555-6666666666666666-|
E|-6666666666666666-1111111111111111-3333333333333333------------------|

          F5
E|--------------------------------------------------|
B|--------------------------------------------------|
G|-—10-10-10-10-10-10-10-10-10-10-10-10-10-10-10-10-|
D|-—10-10-10-10-10-10-10-10-10-10-10-10-10-10-10-10-|
A|---8--8—-8—-8—-8--8--8--8—-8--8--8--8--8--8--8--8-|
E|--------------------------------------------------|

Outro (4:00)
e|------------------------------------|
B|------------------------------------|
G|------7-7--8-10—-7-7-7-7--8-10------|
D|-8-8—-x-x--x-x---x-x-x-x--x-x---8-8-|
A|-8-8—-5-5--6-8---5-5-5-5--6-8---8-8-|
E|-6-6----------------------------6-6-|
Suggest correction
comments
print report bad tab
6 comments total. Showing first comments.
0 reply
guitarhead93 71 wrote on May 13 2007, 12:42 am

bad...

0 reply
bRuCe_ 10 wrote on December 27 2007, 07:19 am

Perfect
Right Tune, like in the real song

0 reply
bRuCe_ 10 wrote on December 27 2007, 07:38 am

E|-----|
B|-----|
G|-----7-7-8-8—-
7-7-7-7--8-8-----—---|
D|----—-5-5-6-6---5-5-5-5
--6-6----8-8—-8-8—-7-7--5
-5|
A|---—--5-5-6-8---5-5-5-5
--6-6--
-8-8—-6-6—-5-5--5-5|
E|-----6-6--6-6--5-5--3-3
|

guest
You may want to rate the tab now too:
select rating
Wanna post a correction for this tab? Suggest correction