Oops, an error
Loading. Please wait.

From Yesterday Bass Tab

version 3
version 3
5,023 views 1 this week
no commentswrite comment
1 2 3 4 5
1 last vote to show rating
add to favorites
launch autoscroll
font size
0
reset
guitar tuner
Autoscroll
slow
fast
+/-
esc
set tempo
stop
Help us to improve Ultimate-Guitar.com Take our survey!
×
Author
Difficulty
advanced
Couplet *

G|-8---0-----8----0------|
D|-----------------------|
A|-----------------------|
E|-----------------------|

Refrain *

G|-----------------------------------------------------------------|
D|-8-8-8-8-8-8-8-8-8-8-8-8-8-8-8-8-3-3-3-3-3-3-3-3-3-3-3-3-3-3-3-3-|
A|-----------------------------------------------------------------|
E|-----------------------------------------------------------------|

G|---------------------------------8-8-8-8-8-8-8-8-8-8-8-8-8-8-8-8-|
D|-5-5-5-5-5-5-5-5-5-5-5-5-5-5-5-5---------------------------------|
A|-----------------------------------------------------------------|
E|-----------------------------------------------------------------|

Avant le Pont *

G|-----------------------------------------------------------------|
D|-8-8-8-8-8-8-8-8-8-8-8-8-8-8-8-8-3-3-3-3-3-3-3-3-3-3-3-3-3-3-3-3-|
A|-----------------------------------------------------------------|
E|-----------------------------------------------------------------|

G|---------------------------------8-8-8-8-8-8-8-8-8-8-8-8-8-8-8-8-|
D|-5-5-5-5-5-5-5-5-5-5-5-5-5-5-5-5---------------------------------|
A|-----------------------------------------------------------------|
E|-----------------------------------------------------------------|

G|10-10-10-10-10-10-10-10-10-10-10-10-10-10-10-10-|
D|------------------------------------------------|
A|------------------------------------------------|
E|------------------------------------------------|

Pont *

G|----------------------------------|
D|----------------------------------|
A|----55-66--5555-66----------------|
E|-33------------------66----66--55-|
Suggest correction
Give kudos to tab author, rate the tab!
1 2 3 4 5
comments
print report bad tab
guest
You may want to rate the tab now too:
select rating
Wanna post a correction for this tab? Suggest correction